» » »

Squad Five-O, Forever Young Tabs (ver.1)

Artists:  A B C D E F G H I J K L M N O P Q R S T U V W X Y Z # 

Forever Young Tabs (ver.1)

Squad Five-O Tabs
 Rating:
4/5 (4 votes)
Forever Young lessons Tabs too difficult? Try these video lessons and learn fast
1
                Tuning:Standard(EADGBe)
()=palm mute

Intro and Chorus
e|-------------------------------------------------------
B|-------------------------------------------------------
G|------------------------------5-5--5--7**--------------
D|-9(9)(9)(9)(9)(9)*---9--7--5--5-5--5--7----------------
A|-9(9)(9)(9)(9)(9)----9--7--5--3-3--3--5----------------
E|-7(7)(7)(7)(7)(7)----7--5--3---------------------------
*im not sure how many times he palm mutes it listen to the cd
**repeat this part 4 times
Verse
the rhythm is weird at this part you'll have to listen to the cd to figure it out
e|---------------------------------------------------------
B|---------------------------------------------------------
G|------5-5-------7-7-------5-5------7-7--5-5-5-5-5-5------
D|-5-5--5-5--5-5--7-7--5-5--5-5--5-5-7-7--5-5-5-5-5-5------
A|-5-5--3-3--5-5--5-5--5-5--3-3--5-5-5-5--3-3-3-3-3-3------
E|-3-3-------3-3-------3-3-------3-3---------

**thats the part were they sing "woa, woa, woa woa woa woa" or something like that
Chorus
e|------------------------------------------------------
B|------------------------------------------------------
G|--------5-5--5-7----------5-5--5-7----------5-5--5-7--
D|-9-7-5--5-5--5-7---9-7-5--5-5--5-7---9-7-5--5-5--5-7--
A|-9-7-5--3-3--3-5---9-7-5--3-3--3-5---9-7-5--3-3--3-5--
E|-7-5-3-------------7-5-3-------------7-5-3------------

e|-------------------------------------
B|-------------------------------------
G|--------7-7--7-5---------------------
D|-9-7-5--7-7--7-5---------------------
A|-9-7-5--5-5--5-3---------------------
E|-7-5-3-------------------------------

then repeat the verse once, and the chorus once and you're done cya
            
Submit corrections

comments powered by Disqus
↑ Back to top | Squad Five-O Tabs for Forever Young. Lyrics for acoustic guitar and electric guitar. 1 Tablatures and chords are parodies/interpretations of the original songs. You may use it for private study, scholarship, research or language learning purposes only