» » »

Squad Five-O, Apocalypse Now Demo Tabs (ver.1)

Artists:  A B C D E F G H I J K L M N O P Q R S T U V W X Y Z # 

Apocalypse Now Demo Tabs (ver.1)

Squad Five-O Tabs
 Rating:
4/5 (4 votes)
Apocalypse Now Demo lessons Tabs too difficult? Try these video lessons and learn fast
1
                (Sion)
Apocalypse Now (Demo Version)
Squad Five-O
Songs From the Penalty Box Vol. 3
 
The Album version is a slower rendition. 
Same Old Chords just slower with The Deadlines horror rock organ playing in the back ground. 
They're just power chords
 
INTRO 1---
e----------------------------------
b----------------------------------
g----------------------------------
d----------33---555----33333----5555----6---5
a--555----11----333----11111----3333----4---3   
E  333 ----------------------------------
 
INTRO 2
e----------------------------------
b----------------------------------
g----------------------------------
d----------3----555555---33333---5555---6---5
a 5555-----1----333333---11111---3333---4---3
E 3333----------------------------------
 
at the same time the secong guitar is playing
e-------------------
b--------(11)----(11)
g-----(14)---(14)
d ----------------
a-----------------
E----------------------
bend the 14th fret on g up to the same note as 11 on b each time you hit it
 
Verses----play these muted. listen to disc for correct changes
e----------------------------------
d----------------------------------
g ----------------------------------
d----------------333-----555----
a-------555------111-----333--
E-------333
 
then unmuted play
d  66666--5
a  44444--3
E-----------
 
Chorus is same as INTRO 1
 
when Jeff sings "Oh Yeah" be playing INTRO 2
 
BASS AND DRUM SOLO
 
the play 
d   55555--6--5
a---33333--4--3
E--------------
 
play this w/"Rocking It! Rocking it"
d--------333-----555         
a 555----111-----333
E 333
followed by INTRO 1
            
Submit corrections

comments powered by Disqus
↑ Back to top | Squad Five-O Tabs for Apocalypse Now Demo. Lyrics for acoustic guitar and electric guitar. 1 Tablatures and chords are parodies/interpretations of the original songs. You may use it for private study, scholarship, research or language learning purposes only