» » »

Kay Tagal Kitang Hinintay Tabs (ver.1)

Artists:  A B C D E F G H I J K L M N O P Q R S T U V W X Y Z # 

Kay Tagal Kitang Hinintay Tabs (ver.1)

Sponge Cola
Rating:
0/5 (0 votes)

Hard to play? Try these video lessons and learn fast.
                ----------------------------------------------------------------------------
----------------------------------------------------------------------------
Tuning:  Standard Tuning


|======|
|Adlib:|
|======|


|---------------------------15-12-13-13--------|
|-10-10-10-8-10-11-13-13-13--------------------|
|-10-10-10-------------------------------------|
|----------------------------------------------|
|----------------------------------------------|
|----------------------------------------------|

|--------------------------------------13b-----|
|-13/15-13---------------------10h11/13--------|
|---------12/14-12--------10h12----------------|
|--------------------10h12---------------------|
|-----------------10h12------------------------|
|----------------------------------------------|

|---------------------------------13b----------|
|----------------6-6-8/11-10-------------------|
|-----5h7p5-5-7/9-9----10-10-12-10-------------|
|-5h7------9-----------------------------------|
|----------------------------------------------|
|----------------------------------------------|

|-13-17-13-12-13-15----------------------------|
|-------------------8-10-8\6-6h8/10-8----------|
|----------------------------------------------|
|----------------------------------------------|
|----------------------------------------------|
|----------------------------------------------|
            
Hard to play? Try these video lessons and learn fast. | Correct




comments powered by Disqus
↑ Back to top | Tablatures and chords are parodies/interpretations of the original songs. You may use it for private study, scholarship, research or language learning purposes only