» » »

Splender, Yeah Whatever Tabs (ver.5)

Artists:  A B C D E F G H I J K L M N O P Q R S T U V W X Y Z # 

Yeah Whatever Tabs (ver.5)

Splender Tabs
Rating:
0/5 (0 votes)
Yeah Whatever lessons Tabs too difficult? Try these video lessons and learn fast
                "(4)
-||-------0--------0------0-|-----------------------|0----------||-----------|
-||*------------3----3----3-|----1p0---------------*|3----------||-----------|
-||-----0-------------------|--0-------0-2p0---0----|0----------||-----------|
-||--------------2----------|-2------2-------2------|2----------||-----------|
-||*--3-------0-------------|----------------------*|2----------||-----------|
-||---------------------0---|-----------------------|0----------||-----------|
   Part 1                    1.2.3.                   4.

-||-----|-----|-----|-----|-----|-----||--------------------------------------|
-||-----|-----|-----|-----|-----|-----||--------------------------------------|
-||-----|-----|-----|-----|-----|-----||--------------------------------------|
-||-8-8-|-6-6-|-8-8-|-6-6-|-5-5-|-6-6-||--------------------------------------|
-||-8-8-|-6-6-|-8-8-|-6-6-|-5-5-|-6-6-||--------------------------------------|
-||-6-6-|-4-4-|-6-6-|-4-4-|-3-3-|-4-4-||--------------------------------------|
   Part 2

-||-----|-----------------------|---------------------------------------|-----|
-||-x-x-|*----------------------|-----------------11-------------------*|-----|
-||-x-x-|--8-8-8--8-8-x-x-10-10-|-10-10-x-x-12-12-12-12-12-10-10-10-10--|-----|
-||-x-x-|--x-x-x--x-x-x-x-x--x--|-x--x--x-x-x--x-----x--x--x--x--x--x---|-----|
-||-x-x-|*-6-6-6--6-6-x-x-8--8--|-8--8--x-x-10-10----10-10-8--8--8--8--*|-----|
-||-----|-----------------------|---------------------------------------|-----|
   Part 3  D#             C                 G

---------------|---------------------||-----------------||-8----------10---|--|
---------------|---------------------||-----------------||*11b13------13b15|--|
---------------|-5-5--5-5-5-5-7----8-||-----------------||-----------------|--|
---------------|-x-x--x-x-x-x-x----x-||-----------------||-----------------|--|
---------------|-3-3--3-3-3-3-5----6-||-----------------||*----------------|--|
---------------|-------------------6-||-----------------||-----------------|--|
 Part 3 ending   C                A#/D#           Part 4  C            G#

-------|------11---|------15----|--------------------|--------------------||--|
-------|------14b16|------18b20*|-----x-x-x-x-x-x-x-x|-------------x-x-x-x||--|
-------|-----------|------------|-----x-x-x-x-x-x-x-x|-------------x-x-x-x||--|
-------|-----------|------------|-----x-x-x-x-x-x-x-x|-------------x-x-x-x||--|
-------|-----------|-----------*|-----x-x-x-x-x-x-x-x|-------------x-x-x-x||--|
-------|-----------|------------|--------------------|--------------------||--|
 4cont.       A           G#     1.   x               2.           x

-|-|-----------|-----------|-----------|-----------|--------------------------|
-|-|-----------|-----------|-----------|-----------|*-------------------------|
-|-|-----------|-----------|-----------|-----------|--------------------------|
-|-|-8-8--8-8-8|-6-6--6-6-6|-8-8--8-8-8|-6-6--6-6-6|-5-5-5-5-5-5-5-5-5-5-5-5--|
-|-|-8-8--8-8-8|-6-6--6-6-6|-8-8--8-8-8|-6-6--6-6-6|*5-5-5-5-5-5-5-5-5-5-5-5--|
-|-|-6-6--6-6-6|-4-4--4-4-4|-6-6--6-6-6|-4-4--4-4-4|-3-3-3-3-3-3-3-3-3-3-3-3--|
 Part 5                                             Play 2x,2nd time w/fill 1

--------|--------------------------------|----------------|----------------|-|
--------|-------------------------------*|8888888888888888|9999999999999999|-|
--------|--------------------------------|xxxxxxxxxxxxxxxx|xxxxxxxxxxxxxxxx|-|
-5-5-5-5|6-6-6-6-6-6-6-6-6-6-6-6-6-6-6-6-|5555555555555555|6666666666666666|-|
-5-5-5-5|6-6-6-6-6-6-6-6-6-6-6-6-6-6-6-6*|----------------|----------------|-|
-3-3-3-3|4-4-4-4-4-4-4-4-4-4-4-4-4-4-4-4-|----------------|----------------|-|
                                          Part 5 fill 1

-||-----------------------------------------|------------------------------|-|
-||-15/16\15\13/15---13-13-13-13-13-13\11-11|\8-8-8-8-8--------------------|-|
-||-x--x--x--x--x----x--x--x--x--x--x--x--x-|-x-x-x-x-x--12-12-12--10-10-10|-|
-||-12/13\12\10/12---10-10-10-10-10-10\8--8-|\5-5-5-5-5--x--x--x---x--x--x-|-|
-||-----------------------------------------|------------10-10-10--8--8--8-|-|
-||-----------------------------------------|------------------------------|-|
 Part 6

--------||-------------|-------|--------------------|-----------||-8-------|-|
--------||-------------|-------|--------------------|-----------||-11b13-11|-|
--------||-5-----------|-8-----|--------------------|-8---------||---------|-|
--------||-5-----------|-8-----|-7------------------|-8---------||---------|-|
--------||-3-----------|-6-----|-7------------------|-6---------||---------|-|
--------||-------------|-6-----|-5------------------|-6---------||---------|-|
"            

comments powered by Disqus
↑ Back to top | Splender Tabs for Yeah Whatever. Lyrics for acoustic guitar and electric guitar. Tablatures and chords are parodies/interpretations of the original songs. You may use it for private study, scholarship, research or language learning purposes only