>
 >
Yeah, Whatever

Yeah, Whatever Guitar Tabs

Splender - Yeah, Whatever chords, tabs, tablatures, lyrics

Guitar lessons | Add/correct | Request | Top 50 tabs Artists:  A B C D E F G H I J K L M N O P Q R S T U V W X Y Z 0-9

Yeah, Whatever Guitar Tabs – Splender

CD, Sheet music, Poster

Do you like Yeah, Whatever? Share with your friends now
Bass TabsChordsTabsTabs v2Tabs v3

I added this tab because other versions here were either incomplete or didnt 
make sense.  I am the only guitar player in a three piece band and therefore 
transcribe songs so that a single guitar is all that is needed to play the 
selection (even though most songs, like this one, have multiple guitar 
tracks).  A single guitar player that owns a capo and can switch from 
clean to dirty should be able to play this song.  If you try this 
transcription and agree or have any problems with it, please let me 
know by email.

SONG REQUIREMENTS:
standard tuning (EADGBE)
4/4 time signature
Tempo: 96
Guitar 1 (G1): capo at third fret; clean with chorus effect
Guitar 2 (G2): no capo; distortion
Guitar 3 (G3): distortion with wah

INTRO, VERSE 1 & 2:
  G1 plays Part 1 (transcribed with capo so 3rd fret = 0)
PRE-CHORUS 1 & 2: 
  G2 plays Part 2
CHORUS 1 & 2: 
  G2 plays Part 3 (with ending; with fill 2 the 2nd time)
BRIDGE:
  G3 plays Part 4
PRE-CHORUS 3:  
  G2 plays Part 5
CHORUS 3: 
  G2 plays Part 3 seven times while G3 plays Part 6
OUTRO:
  G2 plays part 7, G3 plays fill 2 twice
All backing chords are under the staff

LYRICS:
  VERSE 1
And you're primative... And you're cynical to me
And I chewed down on the bit, and almost swallowed it.
  PRE-CHORUS 1
You sit all alone with your color TV, Your hair starts to glisten in spite of th
e fleas
We dont have to stay friends, Lets pretend to be enemies.
  CHORUS
Yeah, whatever makes you happy, Yeah, whatever makes it beautiful.
Yeah, whatever leaves you satisfied, Cuz I'm out of time for now
  VERSE 2
And you're paranoid, As you look me up and down.
And Im soaked in gasoline, mud, and ice cream
  PRE-CHORUS 2
You sit by the phone with your tongue hanging out
You cradle the flies in the back of your mouth.  We dont have to stay friends.
Lets pretend to be enemies.
  CHORUS
  BRIDGE
Damned if you do, Fucked if you dont
Damned if you do, What if you wont
  PRE-CHORUS 3
You must be aware of what you're doing to me
We sunk like a stone on a rock in the sea
We dont have to stay friends (Not for very long)
We dont have to stay friends (Just because you're gone)
You get what you want cause you wont let it die
  CHORUS
  OUTRO
Yeah, whatever makes you happy
Yeah, whatever makes you insecure
Yeah, whatever seems to break you down
Cuz Im out of time, but Im feeling fine.

HAVE AT IT!!!

-||-------0--------0--------|0-----------------------|0----------||-----------
-||*----3-0------3-0------3-|0--0----1p0------------*|0----------||-----------
-||-----0--------0--------0-|--0--0h2---2p0-2p0-2p0--|0----------||-----------
-||-------------------------|------------------------|-----------||-----------
-||*--3------3-0------0-----|-----------------------*|-----------||-----------
-||---------------------0---|------------------------|-----------||-----------
   Part 1                    1.2.3.                   4.                      

-||-----|-----|-----|-----|-----|-----||--------------------------------------
-||-----|-----|-----|-----|-----|-----||--------------------------------------
-||-----|-----|-----|-----|-----|-----||--------------------------------------
-||-8-8-|-6-6-|-8-8-|-6-6-|-5-5-|-6-6-||--------------------------------------
-||-8-8-|-6-6-|-8-8-|-6-6-|-5-5-|-6-6-||--------------------------------------
-||-6-6-|-4-4-|-6-6-|-4-4-|-3-3-|-4-4-||--------------------------------------
   Part 2                                                                     

-||-----|-----------------------|---------------------------------------|-----
-||-x-x-|*----------------------|-----------------11-------------------*|-----
-||-x-x-|--8-8-8--8-8-x-x-10-10-|-10-10-x-x-12-12-12-12-12-10-10-10-10--|-----
-||-x-x-|--x-x-x--x-x-x-x-x--x--|-x--x--x-x-x--x-----x--x--x--x--x--x---|-----
-||-x-x-|*-6-6-6--6-6-x-x-8--8--|-8--8--x-x-10-10----10-10-8--8--8--8--*|-----
-||-----|-----------------------|---------------------------------------|-----
   Part 3  D#             C                 G                                 

---------------|---------------------||-----------------||-8----------10---|--
---------------|---------------------||-----------------||*11b13------13b15|--
---------------|-5-5--5-5-5-5-7----8-||-----------------||-----------------|--
---------------|-x-x--x-x-x-x-x----x-||-----------------||-----------------|--
---------------|-3-3--3-3-3-3-5----6-||-----------------||*----------------|--
---------------|-------------------6-||-----------------||-----------------|--
 Part 3 ending   C                A#/D#           Part 4  C            G#     

-------|------11---|------15----|--------------------|--------------------||--
-------|------14b16|------18b20*|-----x-x-x-x-x-x-x-x|-------------x-x-x-x||--
-------|-----------|------------|-----x-x-x-x-x-x-x-x|-------------x-x-x-x||--
-------|-----------|------------|-----x-x-x-x-x-x-x-x|-------------x-x-x-x||--
-------|-----------|-----------*|-----x-x-x-x-x-x-x-x|-------------x-x-x-x||--
-------|-----------|------------|--------------------|--------------------||--
 4cont.       A           G#     1.   x               2.           x          

-|-|-----------|-----------|-----------|-----------|--------------------------
-|-|-----------|-----------|-----------|-----------|*-------------------------
-|-|-----------|-----------|-----------|-----------|--------------------------
-|-|-8-8--8-8-8|-6-6--6-6-6|-8-8--8-8-8|-6-6--6-6-6|-5-5-5-5-5-5-5-5-5-5-5-5--
-|-|-8-8--8-8-8|-6-6--6-6-6|-8-8--8-8-8|-6-6--6-6-6|*5-5-5-5-5-5-5-5-5-5-5-5--
-|-|-6-6--6-6-6|-4-4--4-4-4|-6-6--6-6-6|-4-4--4-4-4|-3-3-3-3-3-3-3-3-3-3-3-3--
 Part 5                                             Play 2x,2nd time w/fill 1 

--------|--------------------------------|----------------|----------------||-
--------|-------------------------------*|8888888888888888|9999999999999999||-
--------|--------------------------------|xxxxxxxxxxxxxxxx|xxxxxxxxxxxxxxxx||-
-5-5-5-5|6-6-6-6-6-6-6-6-6-6-6-6-6-6-6-6-|5555555555555555|6666666666666666||-
-5-5-5-5|6-6-6-6-6-6-6-6-6-6-6-6-6-6-6-6*|----------------|----------------||-
-3-3-3-3|4-4-4-4-4-4-4-4-4-4-4-4-4-4-4-4-|----------------|----------------||-
                                          Part 5 fill 1                       

-||-----------------------------------------|------------------------------||-
-||-15/16\15\13/15---13-13-13-13-13-13\11-11|\8-8-8-8-8--------------------||-
-||-x--x--x--x--x----x--x--x--x--x--x--x--x-|-x-x-x-x-x--12-12-12--10-10-10||-
-||-12/13\12\10/12---10-10-10-10-10-10\8--8-|\5-5-5-5-5--x--x--x---x--x--x-||-
-||-----------------------------------------|------------10-10-10--8--8--8-||-
-||-----------------------------------------|------------------------------||-
 Part 6                                                                       

--------||-------------|-------|--------------------|-----------||-8-------||-
--------||-------------|-------|--------------------|-----------||-11b13-11||-
--------||-5-----------|-8-----|--------------------|-8---------||---------||-
--------||-5-----------|-8-----|-7------------------|-8---------||---------||-
--------||-3-----------|-6-----|-7------------------|-6---------||---------||-
--------||-------------|-6-----|-5------------------|-6---------||---------||-
 Part 7 ...down. Cause ..time       Cause I'm feelin' fine        Fill 2      





Comments


Popular Splender tabs & chords
Here I Am, There You Go Chords
I Think God Can Explain Chords
The Loneliest Person I Know Chords
Yeah, Whatever Chords
I Think God Can Explain 2 Tabs
I Think God Can Explain 3 Tabs
Wide Awake Tabs
Yeah, Whatever 1 Tabs
Here I Am There You Go Ukulele
The Loneliest Person I Know Ukulele


Song lyrics



↑ Back to top | Tablatures and chords are parodies/interpretations of the original songs. You may use it for private study, scholarship, research or language learning purposes only
© 2014 AZChords.com Contact us | Privacy policy | DMCA | Add/correct tabs | Request tabs | Top 50 tabs