>
 >
So Long You Pretty Thing

So Long You Pretty Thing Guitar Tabs

Spiritualized - So Long You Pretty Thing chords, tabs, tablatures, lyrics

Guitar lessons | Add/correct | Request | Top 50 tabs Artists:  A B C D E F G H I J K L M N O P Q R S T U V W X Y Z 0-9

So Long You Pretty Thing Guitar Tabs – Spiritualized

CD, Sheet music, Poster

Do you like So Long You Pretty Thing? Share with your friends now
ChordsTabsUkulele
Intro:

G. F#m. Em.
If you feel lonely...

D. C#m. Bm.
and the worlds aaagainst you...

Repeat until:

D.
Noooo more...



Intro Strings:

Violins:
---------------------------------------------------------|
-12--10--8--10---------------------12--10---10--10-------|
-12--11--9--11--7p6h7--6p4h6--6p4--12--11---9---7--------|
---------------------------------------------------------|
-10--9---7---9--5p4h5--4p2h4--4p2--10---9---7---5--------|
---------------------------------------------------------|

Viola:

---------------------------------------------|
---------------------------------------------|
---------------------------------------------|
--9--7--5-------------9--7--5----------------|
-------------5--4--2-------------5-----------|
---------------------------------------------|


Cello: (8vb)

------------------------------------------------|
------------------------------------------------|
------------------------------------------------|
------------------------------------------------|
--10--9--7--------------10--9--7--5-------------|
---------------7--5--0--------------------------|


"hehehe"


Verse:

Distant Choir "ooohs" : Drone - E

Chords:

A, C#m, F#m, E


Repeat until:

Bm
I've got no reason...

F#m
To be here....

E
Anymoooore...

(Guitar Fill):

--------------------------|
--------------------------|
--------------------------|
--------------------------|
--------0h2p0-------------|
--0h2---------------------|


(Verse Chords - A, C#m, F#m, E)


Banjo!: (Improvise over A Major shape)

E.g:
------------------------------------------5-------------|
--------5-------------5h7p5--------5--------5----5h7p5--|
--6-6-----6--6--6-------------6-6----6---------6--------|
--------------------------------------------------------|
--------------------------------------------------------|
--------------------------------------------------------|

Bm
Im hopin...

F#m
For a reason...

E
To be here...


D


(Guitar Fill):

----------------------------------------------|
----------------------------------------------|
----------------------------------------------|
----------------------------------------------|
--11p9--7--5p4--5/7--7--5p4---------0h2p0-----|
--------------------------------0h2-----------|

Verse:

A, C#m, F#m, D, A

Bm
I've got no reason...

F#m
To be Livin'

E
Anymore..


D


(Verse)

Bm
Oh God Im hopin

F#m
For the reason

B
TO BE CLEAAARRR!!!!!!!!

D


(REFRAIN) - Major Bar Chords:

A
So Long..

E
you pretty things..

D
God save your little souls

D - E

A
The music..

E
that you played

D
so hard ain't on your radio

D - E

A
And all your dreams..

E
of diamond rings

D
and all that Rock N Roll

D - E
Can bring you

A - D - E
Sail on, So long

A - D - E

(Repeat Indefinitely)

Horns(listen for rhythm):

(The Bits within the '|* *|' - are the main Horn phrases)

|*---------*|-------------|*----------*|-------------|*-12--14-----*|
|*---------*|-------------|*-14-15----*|-------------|*---------10-*|
|*-14-16-11*|---11--11-14-|*-------14-*|--11--11-14--|*------------*|
|*---------*|-----14------|*----------*|----14-------|*------------*|
|*---------*|-------------|*----------*|-------------|*------------*|
|*---------*|-------------|*----------*|-------------|*------------*|

........."Sail On,So Long"...

-10-9----------|*----------*|
------10---10--|*--12--10--*|
---------11----|*----------*|
---------------|*----------*|
---------------|*----------*|
---------------|*----------*|

------------------------------|
------------------------------|
------------14-------14--16---|
--14--16-------16-------------|
------------------------------|
------------------------------|


(Repeat)


Choir 'AAAHS'



----------------------------------|
--14--15--17----------------------|
----------------------------------|
--11--12--14----------------------|
----------------------------------|
----------------------------------|



Choir 'So Long'


---------------------------------------|
--17/--14------------------------------|
---------------------------------------|
--14/--11------------------------------|
---------------------------------------|
---------------------------------------|

Repeat until:

'Sail on, So Long'

(Choir)
------------------------------------|
--12/-14--15--17--------------------|
------------------------------------|
--9/--11--12--14--------------------|
------------------------------------|
------------------------------------|

(Repeat)


Guitar Lick:

-------------------------------|
-------------------------------|
--------2h4---4b5r4--2---------|
--2h4--------------------------|
-------------------------------|
-------------------------------|


-5-5-5-5-5-5-5-5--|
-5-5-5-5-5-5-5-5--|
------------------|
------------------|
------------------|
------------------|





Comments


Popular Spiritualized tabs & chords
Come Together Chords
Lay It Down Slow 3 Chords
Sitting On Fire 1 Chords
Stop Your Crying Chords
Hey Jane Tabs
Stop Your Crying Tabs
Sweet Talk Tabs
Lay It Down Slow Ukulele
On Fire Ukulele
The Slide Song Ukulele


Song lyrics



↑ Back to top | Tablatures and chords are parodies/interpretations of the original songs. You may use it for private study, scholarship, research or language learning purposes only
© 2014 AZChords.com Contact us | Privacy policy | DMCA | Add/correct tabs | Request tabs | Top 50 tabs