» » »

Spiritual Beggars, Throwing Your Life Away Tabs (ver.1)

Artists:  A B C D E F G H I J K L M N O P Q R S T U V W X Y Z # 

Throwing Your Life Away Tabs (ver.1)

Spiritual Beggars Tabs
 Rating:
4.2/5 (5 votes)
Throwing Your Life Away lessons Tabs too difficult? Try these video lessons and learn fast
1
                Band - Spiritual Beggars 
Song - Throwing Your Life Away
Album - Demons

Drop C tuning

Great song, and pretty easy when you get used to the swing of it. This is my first tab by the way.


Intro/verse
|------------------------------------------------------------------------|
|------------------------------------------------------------------------|
|------------------------------------------------------------------------|
|-------------------------------------------------3-5b-rb5p3-------------|
|-----5p3---3h5---5p3---3h5-3-----------5p3---3h5------------5-5-3-------|
|-0-0-----0-----0-----0-------6p5p3-0-0-----0----------------------6p5p3-|
pm...     .     .     .             ...     . 
 
|-----------------------------------------|
|-----------------------------------------|
|-----------------------------------------|
|-----------------------------------------|
|-----5p3---3h5---5p3---3h5----5---7---7--|
|-0-0-----0-----0-----0-----0--5-0-6-0-7--|
pm...     .     .     .     .    .   .


Chorus
|-------------------------------------------------------------------|
|-------------------------------------------------------------------|
|-3-3-3-3-3-3-3-3-3-3-3-3-3-3-3/------------------------------------|
|-3-3-3-3-3-3-3-3-3-3-3-3-3-3-3/-0-0-0-0-0-0-0-0-0-0-0-0-0-0-0-0----|
|-1-1-1-1-1-1-1-1-1-1-1-1-1-1-1/-0-0-0-0-0-0-0-0-0-0-0-0-0-0-0-0----|
|--------------------------------0-0-0-0-0-0-0-0-0-0-0-0-0-0-0-0----|

|--------------------------------------------------------------|
|--------------------------------------------------------------|
|-3-3-3-3-3-3-3-3-3-3-3-3-3-3-3/----------------------10----12-|
|-3-3-3-3-3-3-3-3-3-3-3-3-3-3-3/----------------------10----12-|
|-1-1-1-1-1-1-1-1-1-1-1-1-1-1-1/-----------------------8----10-|
|----------------------------------0-0-0-0-0-0-0-0-0-0---0-0---|

|-------------------------------------------------------------------|
|-------------------------------------------------------------------|
|-3-3-3-3-3-3-3-3-3-3-3-3-3-3-3/------------------------------------|
|-3-3-3-3-3-3-3-3-3-3-3-3-3-3-3/-0-0-0-0-0-0-0-0-0-0-0-0-0-0-0-0----|
|-1-1-1-1-1-1-1-1-1-1-1-1-1-1-1/-0-0-0-0-0-0-0-0-0-0-0-0-0-0-0-0----|
|--------------------------------0-0-0-0-0-0-0-0-0-0-0-0-0-0-0-0----|

|---------------------------------------------|
|---------------------------------------------|
|-3-----3--5--2-------------------------------|
|-3-----3--5--2-------------------------------|
|-1-----1--3--0-------------------------------|
|---------------------5b(ph)-5b(ph)-5b(ph)----|


Breakdown
|-------------------------------------------------------------
|-------------------------------------------------------------
|-------------------------------------------------------------
|-7-7-----7-7-----7-7-----5-5-----3-3-----3-3-----3-3-----2-2-
|-5-5-----5-5-----5-5-----3-3-----1-1-----1-1-----1-1-----0-0-
|-----0-0-----0-0-----0-0-----0-0-----0-0-----0-0-----0-0-----
pm    ...     ...     ...     ...     ...     ...     ...

|--------------------------------------------------------------------|
|--------------------------------------------------------------------|
|-------------------------------------6-6-6-6-6-6-6/7-7-7-7-9-9-9-9--|
|--------------------------------------------------------------------|
|-----5-5-----5-5-----5-5-----5-5-----4-4-4-4-4-4-4/5-5-5-5-7-7-7-7--|
|-0-0-5-5-0-0-5-5-0-0-5-5-0-0-5-5-0-0--------------------------------|
  ...     ...    ...     ...    ...

Solo
|--------------------------------------------------------------------
|-----------------------8-6-8--10-8-10-10b-rb----6~-10-11-10-8-10-8--
|-7-6-7--9-7-9--10-9-10----------------------------------------------
|----------------------------------------------8---------------------
|--------------------------------------------------------------------
|--------------------------------------------------------------------

|--------------------10-9-10--12-10-12--13-12-13--15-13-15--17-13-17-
|-6-8-6--5-6-5-3-1/--------------------------------------------------
|--------------------------------------------------------------------
|--------------------------------------------------------------------
|--------------------------------------------------------------------
|--------------------------------------------------------------------

|-17-b-rb-----------------------------------------------------------|
|-------------17~-14-15-17-14-15-17-14-15-17-14-15-17-14-15-15\-----|
|---------15--------------------------------------------------------|
|-------------------------------------------------------------------|
|-------------------------------------------------------------------|
|-------------------------------------------------------------------|


Fill
|----------------------------------------------------------------------|
|----------------------------------------------------------------------|
|----------------------------------------------------------------------|
|----------------------------------------------------------------------|
|----------------------------------------------------------------------|
|-0-0-0-0-0-0-0-0-0-0-0-0-0-0-0-0-0-0-0-0-0-0-0-0-0-0-0-0-0-0-0-0-0-0--|


Intro / Verse X3
Chorus 
Intro / Verse X2
Chorus
Breakdown X2
Solo
Fill
Chorus X2


There you go, should be all right, or close enough, it sounds alright when i play it along to the CD.
            
Submit corrections

comments powered by Disqus
↑ Back to top | Spiritual Beggars Tabs for Throwing Your Life Away. Lyrics for acoustic guitar and electric guitar. 1 Tablatures and chords are parodies/interpretations of the original songs. You may use it for private study, scholarship, research or language learning purposes only