>
 >
Salt In Your Wounds

Salt In Your Wounds Guitar Tabs

Spiritual Beggars - Salt In Your Wounds chords, tabs, tablatures, lyrics

Guitar lessons | Add/correct | Request | Top 50 tabs Artists:  A B C D E F G H I J K L M N O P Q R S T U V W X Y Z 0-9

Salt In Your Wounds Guitar Tabs – Spiritual Beggars

CD, Sheet music, Poster

Do you like Salt In Your Wounds? Share with your friends now
Tabs
Tuning: Drop D down a step

D|-------------------------------------------------------------| x2
A|-------------------------------------------------------------|
F|--7-6-7-6-7---3-2-3--5--5-3-5----7-6-7-6-7--3-2-3--5--5-3-5--|
C|--5-5-5-5-5---1-1-1--3--3-3-3----5-5-5-5-5--1-1-1--3--3-3-3--|
G|-------------------------------------------------------------|
C|-------------------------------------------------------------|


D|--------------------------------------------------------------|
A|--------------------------------------------------------------|
F|--7-6-7-6-7---3-2-3--5--5-3-5----7-6-7-6-7--3-2-3--5--5-3-5---|
C|--5-5-5-5-5---1-1-1--3--3-3-3----5-5-5-5-5--1-1-1--3--3-3-3---|
G|--------------------------------------------------------------|
C|--------------------------------------------------------------|
 |                                                              |
 |                                                              |
D|--------------------------------------------------------------|
A|---8-----------11----10-----------8---------------------------|
F|--10b----------13b~--12b~---------10b~------7-5-3--2-3-2-0----|
C|--------------------------------------------------------------|
G|--------------------------------------------------------------|
C|--------------------------------------------------------------|

D|--------------------------------------------------------------|
A|--------------------------------------------------------------|
F|--7-6-7-6-7---3-2-3--5--5-3-5----7-6-7-6-7--3-2-3--5--5-3-5---|
C|--5-5-5-5-5---1-1-1--3--3-3-3----5-5-5-5-5--1-1-1--3--3-3-3---|
G|--------------------------------------------------------------|
C|--------------------------------------------------------------|
 |                                                              |
 |                                                              |
D|--------------------------------------------------------------|
A|--------------8------10----------11---------19b----19br~------|
F|--0----------10b~----12b~--------13b~-------------------------|
C|--------------------------------------------------------------|
G|--------------------------------------------------------------|
C|--------------------------------------------------------------|


D|-----------------------------------------------------------------------|
A|-----------------------------------------------------------------------|
F|-----------------------------------------------------------------------|
C|--7-5-7-----7-5-7-------------------7-5-7-----7-5-7--------------------|
G|--5-3-5-----5-3-5-------------------5-3-5-----5-3-5--------------------|
C|--------0-0-------0-0-0-0--0-0-0-0--------0-0-------0-0-0-0--0-0-0-0---|


D|---------------------------------------------------------|
A|---------------------------------------------------------|
F|---------------------------------------------------------|
C|--7-5-7-----7-5-7-------------------3-------5----5-------|
G|--5-3-5-----5-3-5-------------------1-------2----3-------|
C|--------0-0-------0-0-0-0--0-0-0-0-------0---------------|


D|---------------------------------------------------------|
A|---------------------------------------------------------|
F|----------------------h--------------------------h-------| x2
C|----0---0---0---0--0-0-3-------0---0---0---0--0-0-3------|
G|---------------------------------------------------------|
C|--0---1---2---3--------------0---1---2---3---------------|

D|-----------------------------------------------------------------------|
A|-----------------------------------------------------------------------|
F|-----------------------------------------------------------------------|
C|--7-5-7-----7-5-7-------------------7-5-7-----7-5-7--------------------|
G|--5-3-5-----5-3-5-------------------5-3-5-----5-3-5--------------------|
C|--------0-0-------0-0-0-0--0-0-0-0--------0-0-------0-0-0-0--0-0-0-0---|

D|---------------------------------------------------------|
A|---------------------------------------------------------|
F|---------------------------------------------------------|
C|--7-5-7-----7-5-7-------------------3-------5----5-------|
G|--5-3-5-----5-3-5-------------------1-------2----3-------|
C|--------0-0-------0-0-0-0--0-0-0-0-------0---------------|


D|---------------------------------------------------------|
A|---------------------------------------------------------|
F|----------------------h--------------------------h-------| x2
C|----0---0---0---0--0-0-3-------0---0---0---0--0-0-3------|
G|---------------------------------------------------------|
C|--0---1---2---3--------------0---1---2---3---------------|


D|-------------------------------------------------------------|
A|-------------------------------------------------------------|
F|--7-6-7-6-7---3-2-3--5--5-3-5----7-6-7-6-7--3-2-3--5--5-3-5--|
C|--5-5-5-5-5---1-1-1--3--3-3-3----5-5-5-5-5--1-1-1--3--3-3-3--|
G|-------------------------------------------------------------|
C|-------------------------------------------------------------|


D|-------------------------------------------------------------|
A|-------------------------------------------------------------|
F|--7-6-7-6-7---3-2-3--5--5-3-5----7-6-7-6-7\------------------|
C|--5-5-5-5-5---1-1-1--3--3-3-3----5-5-5-5-5\------------------|
G|-------------------------------------------------------------|
C|-------------------------------------------------------------|

D|--10---------13-----12----------10------------------------------------------10----12-----------13---------17b---------------|
A|--13b~-------16b~---15b~--------13b~-------13-11-10-9--10-8-10-8-6~---------13b~--15b~---------16b~-------------------------|
F|-------------------------------------------14-12-10-9--10-9-10-9-7~---------------------------------------------------------|
C|----------------------------------------------------------------------------------------------------------------------------|
G|----------------------------------------------------------------------------------------------------------------------------|
C|----------------------------------------------------------------------------------------------------------------------------|
 |                                                                                       
                                    |
D|----------------------------------------------------------------------------------------------------------------------------|
A|----------------------------------------------------------------------------------------------------------------------------|
F|----------------------------------------------------------------------------------------------------------------------------|
C|--7-6-7-6-7--3-2-3--5--5-3-5----7-6-7-6-7--3-2-3--5--5-3-5-------7-6-7-6-7--3-2-3--5--5-3-5----7-6-7-6-7--3-2-3--5--5-3-5---|
G|--5-5-5-5-5--1-1-1--3--3-3-3----5-5-5-5-5--1-1-1--3--3-3-3-------5-5-5-5-5--1-1-1--3--3-3-3----5-5-5-5-5--1-1-1--3--3-3-3---|
C|----------------------------------------------------------------------------------------------------------------------------|


                                          h  p
D|--17-15-14-------------17b--br17--15-14-14-15-14-----------17b-17b----------------------------------------------------|
A|-----------17-15-14-17---------------------------17-15-17-----------12-13-12-------15-----15----15b--br15~------------|
F|-----------------------------------------------------------------------------12-14-----12----12-----------------------|
C|----------------------------------------------------------------------------------------------------------------------|
G|----------------------------------------------------------------------------------------------------------------------|
C|----------------------------------------------------------------------------------------------------------------------|
 |                                                                                       
                              |
 |                                                                                       
                              |
D|----------------------------------------------------------------------------------------------------------------------|
A|----------------------------------------------------------------------------------------------------------------------|
F|----------------------------------------------------------------------------------------------------------------------|
C|--9---8---9---8---9-----------5-4-5--7--7-5-7----9--8--9--8--9------5-4-5--7--7-5-7----9-8-9-8-9--5-4-5--7--7-5-7-----|
G|--7---7---7---7---7-----------3-3-3--5--5-5-5----7--7--7--7--7------3-3-3--5--5-5-5----7-7-7-7-7--3-3-3--5--5-5-5-----|
C|----------------------------------------------------------------------------------------------------------------------|


D|-------------h--------------h-------------h----------------------------------------------|
A|----h--h---12-15---h--h---12-15---h--h--12-15--15-13-12----10-10b--br10*--10*--10*b------|
F|--12-13-14-------12-13-14-------12-13-14----------------12-------------------------------|
C|-----------------------------------------------------------------------------------------|
G|-----------------------------------------------------------------------------------------|
C|-----------------------------------------------------------------------------------------|
 |                                                                                       
 |
 |                                                                                       
 |
D|-----------------------------------------------------------------------------------------|
A|-----------------------------------------------------------------------------------------|
F|-----------------------------------------------------------------------------------------|
C|--9----8----9----8----9------------------------5-4-5--7-5-7\-----------------------------|
G|--7----7----7----7----7------------------------3-3-3--5-5-5\-----------------------------|
C|-----------------------------------------------------------------------------------------|

D|---------------------|
A|---------------------|
F|---------------------|
C|--3-------5----5-----|
G|--1-------2----3-----|
C|-------0-------------|


D|---------------------------------------------------------|
A|---------------------------------------------------------|
F|----------------------h--------------------------h-------| x4
C|----0---0---0---0--0-0-3-------0---0---0---0--0-0-3------|
G|---------------------------------------------------------|
C|--0---1---2---3--------------0---1---2---3---------------|

D|---------------------------------------------------------|
A|---------------------------------------------------------|
F|----------------------h--------------------------h-------|
C|----0---0---0---0--0-0-3-------0---0---0---0--0-0-3------|
G|---------------------------------------------------------|
C|--0---1---2---3--------------0---1---2---3---------------|
 |                                                         |
 |                                                         |
D|--5------------------------------------------------------|
A|--8------------------------------------------------------|
F|--7-------7-5-7~-----------------8b-br8~-----------------|
C|---------------------------------------------------------|
G|---------------------------------------------------------|
C|---------------------------------------------------------|

D|---------------------------------------------------------|
A|---------------------------------------------------------|
F|----------------------h--------------------------h-------|
C|----0---0---0---0--0-0-3-------0---0---0---0--0-0-3------|
G|---------------------------------------------------------|
C|--0---1---2---3--------------0---1---2---3-----------0---|
 |                                                         |
 |                                                         |
D|--8---8---8---8----------------15b--15b-15b--15br--------|
A|----------------8b-br8~----------------------------------|
F|---------------------------------------------------------|
C|---------------------------------------------------------|
G|---------------------------------------------------------|
C|---------------------------------------------------------|


Key:

b = bend
br = release bend
~ = Virbrato
h = hammer on
p = pull off
* = Pinch Harmonic





Comments


Popular Spiritual Beggars tabs & chords
Pelekas Bass Tabs
Treading Water Bass Tabs
Angel Of Betrayal Tabs
Inner Stengththrowing Your Life Away Tabs
On Dark Rivers Tabs
Picking From The Box Tabs
Throwing Your Life Away Tabs


Song lyrics



↑ Back to top | Tablatures and chords are parodies/interpretations of the original songs. You may use it for private study, scholarship, research or language learning purposes only
© 2014 AZChords.com Contact us | Privacy policy | DMCA | Add/correct tabs | Request tabs | Top 50 tabs