>
 >
Picking From The Box

Picking From The Box Guitar Tabs

Spiritual Beggars - Picking From The Box chords, tabs, tablatures, lyrics

Guitar lessons | Add/correct | Request | Top 50 tabs Artists:  A B C D E F G H I J K L M N O P Q R S T U V W X Y Z 0-9

Picking From The Box Guitar Tabs – Spiritual Beggars

CD, Sheet music, Poster

Do you like Picking From The Box? Share with your friends now
Tabs
-------------------------------------------------------------------------------
                             Spiritual Beggars - Picking from the box
-------------------------------------------------------------------------------

Tuning:drop D
| /  slide up
| \  slide down
| h  hammer-on
| p  pull-off
| ~  vibrato
| +  harmonic
| x  Mute note
===============================================================================
this is the simplest song they ever wrote please e-mail me 
if i have got it wrong in any case sorry no solo 'cos im not good enough

listen to the CD for timing ive got it there or thereabouts

e|---------------------------------------------------------------------------|
B|---------------------------------------------------------------------------|
G|---------------------------------------------------------------------------|
D|--2-2-22-5-7-7/9\7----5-7-5/9-9/12-14-12-7\2-------------------------------|
A|--2-2-22-5-7-7/9\7----5-7-5/9-9/12-14-12-7\2-------------------------------|
D|--2-2-22-5-7-7/9\7----5-7-5/9-9/12-14-12-7\2-------------------------------|

e|---------------------------------------------------------------------------|
B|---------------------------------------------------------------------------|
G|---------------------------------------------------------------------------|
D|0-2-2-22-5-7-7/9\7-0----5-7-5/9-9/12-12/14-17-14/12-14---------------------|
A|0-2-2-22-5-7-7/9\7-0----5-7-5/9-9/12-12/14-17-14/12-14---------------------|
D|0-2-2-22-5-7-7/9\7-0----5-7-5/9-9/12-12/14-17-14/12-14---------------------|

e|---------------------------------------------------------------------------|
B|---------------------------------------------------------------------------|
G|---------------------------------------------------------------------------|
D|12\2-2-22-5-7-7/9\7----5-7-5/9-9/12-14-12-7\2------------------------------|
A|12\2-2-22-5-7-7/9\7----5-7-5/9-9/12-14-12-7\2------------------------------|
D|12\2-2-22-5-7-7/9\7----5-7-5/9-9/12-14-12-7\2------------------------------|

e|---------------------------------------------------------------------------|
B|---------------------------------------------------------------------------|
G|---------------------------------------------------------------------------|
D|0-2-2-22-5-7-7/9\7-0----5-7-5/9-9/12-12/14-17-14/12-14---------------------|
A|0-2-2-22-5-7-7/9\7-0----5-7-5/9-9/12-12/14-17-14/12-14---------------------|
D|0-2-2-22-5-7-7/9\7-0----5-7-5/9-9/12-12/14-17-14/12-14---------------------|

e|---------------------------------------------------------------------------|
B|---------------------------------------------------------------------------|
G|---------------------------------------------------------------------------|
D|--xx-xx----2-2-1-0-0-1-2-2-1-0-0-1-2-2-1-0-0-1-----------------------------|
A|--xx-xx----2-2-1-0-0-1-2-2-1-0-0-1-2-2-1-0-0-1-----------------------------|
D|--xx-xx----2-2-1-0-0-1-2-2-1-0-0-1-2-2-1-0-0-1-----------------------------|

e|---------------------------------------------------------------------------|
B|---------------------------------------------------------------------------|
G|---------------------------------------------------------------------------|
D|--2-2-0-2--0-2-x-x--0-2-x-/5-2---------------------------------------------|
A|--2-2-0-2--0-2-x-x--0-2-x-/5-2---------------------------------------------|
D|--2-2-0-2--0-2-x-x--0-2-x-/5-2---------------------------------------------|

e|---------------------------------------------------------------------------|
B|---------------------------------------------------------------------------|
G|---------------------------------------------------------------------------|
D|--2-2-0-2--0-2-x-x--0-2-x-/5-2---------------------------------------------|
A|--2-2-0-2--0-2-x-x--0-2-x-/5-2---------------------------------------------|
D|--2-2-0-2--0-2-x-x--0-2-x-/5-2---------------------------------------------|

e|---------------------------------------------------------------------------|
B|---------------------------------------------------------------------------|
G|---------------------------------------------------------------------------|
D|--2-2-0-2--x-xx-0----------------------------------------------------------|
A|--2-2-0-2--x-xx-0----------------------------------------------------------|
D|--2-2-0-2--x-xx-0----------------------------------------------------------|

e|---------------------------------------------------------------------------|
B|---------------------------------------------------------------------------|
G|---------------------------------------------------------------------------|
D|9\2-2-0-2--0-2-x-x--0-2-x-/5-2---------------------------------------------|
A|9\2-2-0-2--0-2-x-x--0-2-x-/5-2---------------------------------------------|
D|9\2-2-0-2--0-2-x-x--0-2-x-/5-2---------------------------------------------|

e|---------------------------------------------------------------------------|
B|---------------------------------------------------------------------------|
G|---------------------------------------------------------------------------|
D|--2-2-0-2--x-xx-0--0-0-0-0-0-0-0-------------------------------------------|
A|--2-2-0-2--x-xx-0--0-0-0-0-0-0-0-------------------------------------------|
D|--2-2-0-2--x-xx-0--0-0-0-0-0-0-0-------------------------------------------|

e|---------------------------------------------------------------------------|
B|---------------------------------------------------------------------------|
G|------------------------4--------------------------------------------------|
D|-----4----4----4-6-7p6h7-7-4-----4----4---5--6--7--8-9\--------------------|
A|-----------------------------------------5--6--7--8--9\--------------------|
D|--4-4--4-4--4-4---------------4-4--4-4--5--6--7--8---9\--------------------|

e|---------------------------------------------------------------------------|
B|---------------------------------------------------------------------------|
G|---------------------------------------------------------------------------|
D|--2-2-0-2--0-2-x-x--0-2-x-/5-2---------------------------------------------|
A|--2-2-0-2--0-2-x-x--0-2-x-/5-2---------------------------------------------|
D|--2-2-0-2--0-2-x-x--0-2-x-/5-2---------------------------------------------|

e|---------------------------------------------------------------------------|
B|---------------------------------------------------------------------------|
G|---------------------------------------------------------------------------|
D|--2-2-0-2--x-xx-0----------------------------------------------------------|
A|--2-2-0-2--x-xx-0----------------------------------------------------------|
D|--2-2-0-2--x-xx-0----------------------------------------------------------|

e|---------------------------------------------------------------------------|
B|---------------------------------------------------------------------------|
G|---------------------------------------------------------------------------|
D|9\2-2-0-2--0-2-x-x--0-2-x-/5-2---------------------------------------------|
A|9\2-2-0-2--0-2-x-x--0-2-x-/5-2---------------------------------------------|
D|9\2-2-0-2--0-2-x-x--0-2-x-/5-2---------------------------------------------|

e|---------------------------------------------------------------------------|
B|---------------------------------------------------------------------------|
G|---------------------------------------------------------------------------|
D|--2-2-0-2--x-xx-0----------------------------------------------------------|
A|--2-2-0-2--x-xx-0----------------------------------------------------------|
D|--2-2-0-2--x-xx-0----------------------------------------------------------|

e|---------------------------------------------------------------------------|
B|---------------------------------------------------------------------------|
G|---------------------------------------------------------------------------|
D|9\2-2-0-2--0-2-x-x--0-2-x-/5-2---------------------------------------------|
A|9\2-2-0-2--0-2-x-x--0-2-x-/5-2---------------------------------------------|
D|9\2-2-0-2--0-2-x-x--0-2-x-/5-2---------------------------------------------|

e|---------------------------------------------------------------------------|
B|---------------------------------------------------------------------------|
G|---------------------------------------------------------------------------|
D|--2-2-0-2--x-xx-0--0-0-0-0-0-0-0-------------------------------------------|
A|--2-2-0-2--x-xx-0--0-0-0-0-0-0-0-------------------------------------------|
D|--2-2-0-2--x-xx-0--0-0-0-0-0-0-0-------------------------------------------|

e|---------------------------------------------------------------------------|
B|---------------------------------------------------------------------------|
G|------------------------4--------------------------------------------------|
D|-----4----4----4-6-7p6h7-7-4-----4----4---5--6--7--8-9\--------------------|
A|-----------------------------------------5--6--7--8--9\--------------------|
D|--4-4--4-4--4-4---------------4-4--4-4--5--6--7--8---9\--------------------|

e|---------------------------------------------------------------------------|
B|---------------------------------------------------------------------------|
G|---------------------------------------------------------------------------|
D|--2-2-22-5-7-7/9\7----5-7-5/9-9/12-14-12-7\2-------------------------------|
A|--2-2-22-5-7-7/9\7----5-7-5/9-9/12-14-12-7\2-------------------------------|
D|--2-2-22-5-7-7/9\7----5-7-5/9-9/12-14-12-7\2-------------------------------|

e|---------------------------------------------------------------------------|
B|---------------------------------------------------------------------------|
G|---------------------------------------------------------------------------|
D|0-2-2-22-5-7-7/9\7-0----5-7-5/9-9/12-12/14-17-14/12-14---------------------|
A|0-2-2-22-5-7-7/9\7-0----5-7-5/9-9/12-12/14-17-14/12-14---------------------|
D|0-2-2-22-5-7-7/9\7-0----5-7-5/9-9/12-12/14-17-14/12-14---------------------|

e|---------------------------------------------------------------------------|
B|---------------------------------------------------------------------------|
G|---------------------------------------------------------------------------|
D|-----------2-2-1-0-0-1-2-2-1-0-0-1-2-2-1-0-0-1-----------------------------|
A|-----------2-2-1-0-0-1-2-2-1-0-0-1-2-2-1-0-0-1-----------------------------|
D|-----------2-2-1-0-0-1-2-2-1-0-0-1-2-2-1-0-0-1-----------------------------|

e|---------------------------------------------------------------------------|
B|---------------------------------------------------------------------------|
G|---------------------------------------------------------------------------|
D|-----------2-2-1-0-0-1-2-2-1-0-0-1-2-2-1-0-0-1-----------------------------|
A|-----------2-2-1-0-0-1-2-2-1-0-0-1-2-2-1-0-0-1-----------------------------|
D|-----------2-2-1-0-0-1-2-2-1-0-0-1-2-2-1-0-0-1-----------------------------|

e|---------------------------------------------------------------------------|
B|---------------------------------------------------------------------------|
G|---------------------------------------------------------------------------|
D|--2-2-0-2--0-2-x-x--0-2-x-/5-2---------------------------------------------|
A|--2-2-0-2--0-2-x-x--0-2-x-/5-2---------------------------------------------|
D|--2-2-0-2--0-2-x-x--0-2-x-/5-2---------------------------------------------|

e|---------------------------------------------------------------------------|
B|---------------------------------------------------------------------------|
G|---------------------------------------------------------------------------|
D|--2-2-0-2--0-2-x-x--0-2-x-/5-2---------------------------------------------|
A|--2-2-0-2--0-2-x-x--0-2-x-/5-2---------------------------------------------|
D|--2-2-0-2--0-2-x-x--0-2-x-/5-2---------------------------------------------|

e|---------------------------------------------------------------------------|
B|---------------------------------------------------------------------------|
G|---------------------------------------------------------------------------|
D|--2-2-0-2--x-xx-0----------------------------------------------------------|
A|--2-2-0-2--x-xx-0----------------------------------------------------------|
D|--2-2-0-2--x-xx-0----------------------------------------------------------|

e|---------------------------------------------------------------------------|
B|---------------------------------------------------------------------------|
G|---------------------------------------------------------------------------|
D|9\2-2-0-2--0-2-x-x--0-2-x-/5-2---------------------------------------------|
A|9\2-2-0-2--0-2-x-x--0-2-x-/5-2---------------------------------------------|
D|9\2-2-0-2--0-2-x-x--0-2-x-/5-2---------------------------------------------|

e|---------------------------------------------------------------------------|
B|---------------------------------------------------------------------------|
G|---------------------------------------------------------------------------|
D|--2-2-0-2--x-xx-0--0-0-0-0-0-0-0-------------------------------------------|
A|--2-2-0-2--x-xx-0--0-0-0-0-0-0-0-------------------------------------------|
D|--2-2-0-2--x-xx-0--0-0-0-0-0-0-0-------------------------------------------|

e|---------------------------------------------------------------------------|
B|---------------------------------------------------------------------------|
G|------------------------4--------------------------------------------------|
D|-----4----4----4-6-7p6h7-7-4-----4----4---5--6--7--8-9\--------------------|
A|-----------------------------------------5--6--7--8--9\--------------------|
D|--4-4--4-4--4-4---------------4-4--4-4--5--6--7--8---9\--------------------|

e|---------------------------------------------------------------------------|
B|---------------------------------------------------------------------------|
G|---------------------------------------------------------------------------|
D|--2-2-22-5-7-7/9\7----5-7-5/9-9/12-14-12-7\2-------------------------------|
A|--2-2-22-5-7-7/9\7----5-7-5/9-9/12-14-12-7\2-------------------------------|
D|--2-2-22-5-7-7/9\7----5-7-5/9-9/12-14-12-7\2-------------------------------|

e|---------------------------------------------------------------------------|
B|---------------------------------------------------------------------------|
G|---------------------------------------------------------------------------|
D|0-2-2-22-5-7-7/9\7-0----5-7-5/9-9/12-12/14-17-14/12-14---------------------|
A|0-2-2-22-5-7-7/9\7-0----5-7-5/9-9/12-12/14-17-14/12-14---------------------|
D|0-2-2-22-5-7-7/9\7-0----5-7-5/9-9/12-12/14-17-14/12-14---------------------|

e|---------------------------------------------------------------------------|
B|---------------------------------------------------------------------------|
G|---------------------------------------------------------------------------|
D|12\2-2-22-5-7-7/9\7----5-7-5/9-9/12-14-12-7\2------------------------------|
A|12\2-2-22-5-7-7/9\7----5-7-5/9-9/12-14-12-7\2------------------------------|
D|12\2-2-22-5-7-7/9\7----5-7-5/9-9/12-14-12-7\2------------------------------|

e|---------------------------------------------------------------------------|
B|---------------------------------------------------------------------------|
G|---------------------------------------------------------------------------|
D|0-2-2-22-5-7-7/9\7-0----5-7-5/9-9/12-12/14-17-14/12-14---------------------|
A|0-2-2-22-5-7-7/9\7-0----5-7-5/9-9/12-12/14-17-14/12-14---------------------|
D|0-2-2-22-5-7-7/9\7-0----5-7-5/9-9/12-12/14-17-14/12-14---------------------|


e|---------------------------------------------------------------------------|
B|---------------------------------------------------------------------------|
G|---------------------------------------------------------------------------|
D|-----------2-2-1-0-0-1-2-2-1-0-0-1-2-2-1-0-0-1-----------------------------|
A|-----------2-2-1-0-0-1-2-2-1-0-0-1-2-2-1-0-0-1-----------------------------|
D|-----------2-2-1-0-0-1-2-2-1-0-0-1-2-2-1-0-0-1-----------------------------|

e|---------------------------------------------------------------------------|
B|---------------------------------------------------------------------------|
G|---------------------------------------------------------------------------|
D|--2-2-0-2--0-2-------------------------------------------------------------|
A|--2-2-0-2--0-2-------------------------------------------------------------|
D|--2-2-0-2--0-2-------------------------------------------------------------|

right thats that then more soon fellow begheads





Comments


Popular Spiritual Beggars tabs & chords
Pelekas Bass Tabs
Treading Water Bass Tabs
Angel Of Betrayal Tabs
Inner Stengththrowing Your Life Away Tabs
On Dark Rivers Tabs
Salt In Your Wounds Tabs
Throwing Your Life Away Tabs


Song lyrics



↑ Back to top | Tablatures and chords are parodies/interpretations of the original songs. You may use it for private study, scholarship, research or language learning purposes only
© 2014 AZChords.com Contact us | Privacy policy | DMCA | Add/correct tabs | Request tabs | Top 50 tabs