» » »

Spiritual Beggars, Pelekas Bass tabs (ver.1)

Artists:  A B C D E F G H I J K L M N O P Q R S T U V W X Y Z # 

Pelekas Bass tabs (ver.1)

Spiritual Beggars Tabs
 Rating:
4/5 (4 votes)
Pelekas lessons Tabs too difficult? Try these video lessons and learn fast
1
                -------------------------------------------------------------------------------
-------------------------------------------------------------------------------


Tuning: standard BEADG

Intro:
G|----------------------------------------5-7-7-7-7-7-7-5---5----------------|
D|--------------------------------------------------------7---7-5------------|
A|---------------------------------------------------------------------------|
E|---------------------------------------------------------------------------|
B|-3 ------------------------------------------------------------------------|

Bridge, verse:
G|---------------------------------------------------------------------------|
D|---------------------------------------------------------------------------|
A|------5------5------5--------3-5------5------5------5--------3-5-----------|
E|---------------------------5-------------------------------5---------------|x6
B|-3--3---5--3---6--3---5--3-------3--3---5--3---6--3---5--3-----------------|

Bridge:
G|---------------------------------------------------------------------------------|
D|---------------------------------------------------------------------------------|
A|---------------------------------------------------------------------------------|
E|---------------------------------------------------------------------------------|
B|-3--3-3--3-3--3-3--3-3--3-3--3-3--3-3--3-3--3-3--3-3--3-3--3-6--6-6--6-8--8-8--8-|

G|---------------------------------------------------------------------------------|
D|---------------------------------------------------------------------------------|
A|---------------------------------------------------------------------------------|
E|-------------------------------------------------------------6--6-6--6-8--8-8--8-|
B|-3--3-3--3-3--3-3--3-3--3-3--3-3--3-3--3-3--3-3--3-3--3-3--3---------------------|

Verse:
G|---------------------------------------------------------------------------|
D|---------------------------------------------------------------------------|
A|------5------5------5--------3-5------5------5------5--------3-5-----------|
E|---------------------------5-------------------------------5---------------|x4
B|-3--3---5--3---6--3---5--3-------3--3---5--3---6--3---5--3-----------------|

Bridge:
G|---------------------------------------------------------------------------------|
D|---------------------------------------------------------------------------------|
A|---------------------------------------------------------------------------------|
E|---------------------------------------------------------------------------------|
B|-3--3-3--3-3--3-3--3-3--3-3--3-3--3-3--3-3--3-3--3-3--3-3--3-6--6-6--6-8--8-8--8-|

G|---------------------------------------------------------------------------------|
D|---------------------------------------------------------------------------------|
A|---------------------------------------------------------------------------------|
E|-------------------------------------------------------------6--6-6--6-8--8-8--8-|
B|-3--3-3--3-3--3-3--3-3--3-3--3-3--3-3--3-3--3-3--3-3--3-3--3---------------------|

Chorus:
G|---------------------------------------------------------------------------|
D|---------------------------------------------------------------------------|
A|-5-5-5-3----------3--3-3-----------5-5-5-3----------3--3-3-----------------|
E|--------------------------6--6-6-5--------------------------6--6-6-5-------|x2
B|----------6--6-6----------------------------6--6-6-------------------------|

Bridge:
G|---------------------------------------------|
D|---------------------------------------------|
A|------3/5-5--(x)-3/5-5--(x)-3/5-(x)----------|
E|------------------------------------7--8-----|x4
B|-3--3------------------------------------6---|

G|---------------------------------------------------------------------------|
D|---------------------------------------------------------------------------|
A|---------------------------------------------------------------------------|
E|---------------------------------------------------------------------------|
B|-3 -----------------------------------------------------------------3/15\3-|

Solo:
G|---------------------------------------------------------------------------|
D|---------------------------------------------------------------------------|
A|------5------5------5--------3-5------5------5------5--------3-5-----------|
E|---------------------------5-------------------------------5---------------|x2
B|-3--3---5--3---6--3---5--3-------3--3---5--3---6--3---5--3-----------------|

Bridge:
G|---------------------------------------------------------------------------------|
D|---------------------------------------------------------------------------------|
A|---------------------------------------------------------------------------------|
E|---------------------------------------------------------------------------------|
B|-3--3-3--3-3--3-3--3-3--3-3--3-3--3-3--3-3--3-3--3-3--3-3--3-6--6-6--6-8--8-8--8-|

G|---------------------------------------------------------------------------------|
D|---------------------------------------------------------------------------------|
A|---------------------------------------------------------------------------------|
E|-------------------------------------------------------------6--6-6--6-8--8-8--8-|
B|-3--3-3--3-3--3-3--3-3--3-3--3-3--3-3--3-3--3-3--3-3--3-3--3---------------------|

Verse:
G|---------------------------------------------------------------------------|
D|---------------------------------------------------------------------------|
A|------5------5------5--------3-5------5------5------5--------3-5-----------|
E|---------------------------5-------------------------------5---------------|x2
B|-3--3---5--3---6--3---5--3-------3--3---5--3---6--3---5--3-----------------|

Chorus:
G|---------------------------------------------------------------------------|
D|---------------------------------------------------------------------------|
A|-5-5-5-3----------3--3-3-----------5-5-5-3----------3--3-3-----------------|
E|--------------------------6--6-6-5--------------------------6--6-6-5-------|x4
B|----------6--6-6----------------------------6--6-6-------------------------|

Outro:
G|-------------------------------------------------------5-7-7-5-7-7---------|
D|-------------------------------------------------------------------9--10---|
A|-------------------------------------------------------------------------8-|
E|---------------------------------------------------------------------------|
B|-3 -----------------------------------3 -----------------------------------|

G|---------------------------------------------|
D|---------------------------------------------|
A|------3/5-5--(x)-3/5-5--(x)-3/5-(x)----------|
E|------------------------------------7--8-----|x6
B|-3--3------------------------------------6---|

G|---------------------------------------------------------------------------|
D|---------------------------------------------------------------------------|
A|---------------------------------------------------------------------------|
E|---------------------------------------------------------------------------|
B|-3 ------------------------------------------------------------------------|

===============================================================================
Notes: 

I'm not sure about the first part of the outro, so tell me if it's not correct!

If You have problems with this tab, write Me a mail what's wrong with it
instead of giving it a bad rating! It'd be better for everyone! Thx!


| /  slide up
| \  slide down
| h  hammer-on
| p  pull-off
| ~  vibrato
| +  harmonic
| x  Mute note
===============================================================================
            
Submit corrections

comments powered by Disqus
↑ Back to top | Spiritual Beggars Bass for Pelekas. Lyrics for acoustic guitar and electric guitar. 1 Tablatures and chords are parodies/interpretations of the original songs. You may use it for private study, scholarship, research or language learning purposes only