» » »

Spiritual Beggars, On Dark Rivers Tabs (ver.1)

Artists:  A B C D E F G H I J K L M N O P Q R S T U V W X Y Z # 

On Dark Rivers Tabs (ver.1)

Spiritual Beggars Tabs
Rating:
0/5 (0 votes)
On Dark Rivers lessons Tabs too difficult? Try these video lessons and learn fast
                Spiritual Beggars - On Dark Rivers

Tuning: Whole step to "Drop-C"

 ||----||
*||----||*  <= repeat
*||----||*
 ||----||

~~	let ring

h	hammer on
p	pull off
s	slide
ps	plektrum slide
x	mute note


Bass
d ||----------------------------------------------------------------|
A ||----------------------------------------------------------------|
F*||----------------------------------------------------------------|
C*||--------------5---5-----------5---------------5---5-----------5-|
G ||----------8---------8-7-8-7-8-------------8---------8-7-8-7-8---|
C ||5-5-8-5-5---5-------------------5-5-8-5-5---5-------------------|


Intro
  e --------|
  B --------|
  G --12s15-|
  D --------|
  A --------|
  E --------|

e ||----------------------------------------------------------------||
B ||18~~~~~~------17~~~~~~------------------------------------------||
G*||---------12s15---------------12-15~~~~~~~~~~~~~~~~~~~--------12-||*
D*||----------------------------------------------------------------||*
A ||----------------------------------------------------------------||
E ||----------------------------------------------------------------||


Chorus
d ||--------------3~~~3-----3---3-----------------3---3-----3---3---||
A ||--3-----3-----3~~~3-----3---3-5---3-----3-----3---3-----3---3-5-||
F*||--3-----3-----3~~~3-----3---3-5---3-----3-----3---3-----3---3-5-||*
C*||--3-----3-------------------------3-----3-----------------------||*
G ||----------------------------------------------------------------||
C ||5---5-5---5-5-------5-5---5-----5---5-5---5-5-------5-5---5-----||


Bridge
d ||----------------------------------------------------------------||
A ||----------------------------------------------------------------||
F*||----------------------------------------------------------------||*
C*||-------1~~~~----------------------------1~~~~-------------------||*
G ||1--3---------3-------------3~~~~1--3---------3-------------3~~~~||
C ||----------------1--3p1--1-----------------------1--3p1--1-------||
    The last note is actually one octave lower, but then you have to
	tune down another whole step, which can make the guitar too
	"sloppy"...


Post-solo melody
 d |----------------------------------------------------------------|
 A |----------------------------------------------------------------|
 F |10~~~~~~~~~~~~9-7-9---7---7-------------------------------------|
 C |------------------------10----10-7s8~~~~~~~~~~~~~~~~~~~~~~------|
 G |----------------------------------------------------------------|
 C |----------------------------------------------------------------|

  d ----------------------------------------------------------------|
  A ----------------------------------------------------------------|
  F 10~~~~~~~~~~~~9-7-9---7---7--------12~~~~~~~~~~~~~~~~~~~~~~-----|
  C ------------------------10----10-8------------------------------|
  G ----------------------------------------------------------------|
  C ----------------------------------------------------------------|
            

comments powered by Disqus
↑ Back to top | Spiritual Beggars Tabs for On Dark Rivers. Lyrics for acoustic guitar and electric guitar. Tablatures and chords are parodies/interpretations of the original songs. You may use it for private study, scholarship, research or language learning purposes only