>
 >
Inner Stengththrowing Your Life Away

Inner Stengththrowing Your Life Away Guitar Tabs

Spiritual Beggars - Inner Stengththrowing Your Life Away chords, tabs, tablatures, lyrics

Guitar lessons | Add/correct | Request | Top 50 tabs Artists:  A B C D E F G H I J K L M N O P Q R S T U V W X Y Z 0-9

Inner Stengththrowing Your Life Away Guitar Tabs – Spiritual Beggars

CD, Sheet music, Poster

Do you like Inner Stengththrowing Your Life Away? Share with your friends now
Tabs
Tuning: Drop D down a step


D|----------------------------------------| x4
A|----------------------------------------|
F|--------h---3-----h---5--4--3---h-------|
C|--5----3-5--3----3-5--5--4--3--3-5------|
G|--5----3-5--1----3-5--3--2--1--3-5------|
C|--5----3-5-------3-5-----------3-5------|

D|-------------------------------------------------| x3
A|-------------------------------------------------|
F|-----3/5\3-------5/7\5\3-----------3/5\3---------|
C|--1-----------3-----------5----------------------|
G|--1--1/3\1----3--3/5\3\1--5--------1/3\1---------|
C|--1--------5--3-----------5--------------5-------|

D|-------------------------------------------------|
A|-------------------------------------------------|
F|-----3/5\3-------5/7\5\3-------------------------|
C|--1-----------3-----------0----------------------|
G|--1--1/3\1----3--3/5\3\1--0----------------------|
C|--1--------5--3-----------0----------------------|


Tuning: Drop D down a step

D|--------------------------------------------------------------------------------|
A|--------------------------------------------------------------------------------|
F|--------------------------------------------------------------------------------|
C|-------p-----h------p-----h-------------------p-----h---3-5br-3-----------------|
G|------5-3---3-5----5-3---3-5-----p-p---------5-3-0-3-5----------5-5-----p-p-----|
C|--0-0-----0------0-----0------0-6-5-3----0-0-------------------------0-6-5-3----|

D|---------------------------------------------------------------------------|
A|---------------------------------------------------------------------------|
F|---------------------------------------------------------------------------|
C|-------p-----h------p-----h---------------------------7--7-7--7-7--7-7-----|
G|------5-3---3-5----5-3---3-5-----p-p------5-----7-----7--7-7--7-7--7-7-----|
C|--0-0-----0------0-----0------0-6-5-3--0--5--0--6--0--7--7-7--7-7--7-7-----|

D|----------------------------------------------------------------------|
A|----------------------------------------------------------------------|
F|--3--3--3-3--3-3-3--3-3-3--3-3-3--------------------------------------|
C|--3--3--3-3--3-3-3--3-3-3--3-3-3--0--0--0-0--0-0-0--0-0-0--0-0-0------|
G|--1--1--1-1--1-1-1--1-1-1--1-1-1--0--0--0-0--0-0-0--0-0-0--0-0-0------|
C|----------------------------------0--0--0-0--0-0-0--0-0-0--0-0-0------|


D|-----------------------------------------------------------------|
A|-----------------------------------------------------------------|
F|--3--3--3-3--3-3-3--3-3-3--3-3-3-----------------10\----12\------|
C|--3--3--3-3--3-3-3--3-3-3--3-3-3--0--0--0-0--0-0-10\--0-12\------|
G|--1--1--1-1--1-1-1--1-1-1--1-1-1--0--0--0-0--0-0-8-\--0-10\------|
C|----------------------------------0--0--0-0--0-0------0----------|


D|----------------------------------------------------------------------|
A|----------------------------------------------------------------------|
F|--3--3--3-3--3-3-3--3-3-3--3-3-3--------------------------------------|
C|--3--3--3-3--3-3-3--3-3-3--3-3-3--0--0--0-0--0-0-0--0-0-0--0-0-0------|
G|--1--1--1-1--1-1-1--1-1-1--1-1-1--0--0--0-0--0-0-0--0-0-0--0-0-0------|
C|----------------------------------0--0--0-0--0-0-0--0-0-0--0-0-0------|

D|-------------------------------------------|
A|-------------------------------------------|
F|--3--------5----2--------------------------|
C|--3--------5----2--------------------------|
G|--1--------3----0--------------------------|
C|-------------------------5*b-5*b-5*b-------|

D|--------------------------------------------------------------------------------|
A|--------------------------------------------------------------------------------|
F|--------------------------------------------------------------------------------|
C|-------p-----h------p-----h-------------------p-----h---3-5br-3-----------------|
G|------5-3---3-5----5-3---3-5-----p-p---------5-3-0-3-5----------5-5-----p-p-----|
C|--0-0-----0------0-----0------0-6-5-3----0-0-------------------------0-6-5-3----|

D|---------------------------------------------------------------------------|
A|---------------------------------------------------------------------------|
F|---------------------------------------------------------------------------|
C|-------p-----h------p-----h---------------------------7--7-7--7-7--7-7-----|
G|------5-3---3-5----5-3---3-5-----p-p------5-----7-----7--7-7--7-7--7-7-----|
C|--0-0-----0------0-----0------0-6-5-3--0--5--0--6--0--7--7-7--7-7--7-7-----|


D|----------------------------------------------------------------------|
A|----------------------------------------------------------------------|
F|--3--3--3-3--3-3-3--3-3-3--3-3-3--------------------------------------|
C|--3--3--3-3--3-3-3--3-3-3--3-3-3--0--0--0-0--0-0-0--0-0-0--0-0-0------|
G|--1--1--1-1--1-1-1--1-1-1--1-1-1--0--0--0-0--0-0-0--0-0-0--0-0-0------|
C|----------------------------------0--0--0-0--0-0-0--0-0-0--0-0-0------|


D|-----------------------------------------------------------------|
A|-----------------------------------------------------------------|
F|--3--3--3-3--3-3-3--3-3-3--3-3-3-----------------10\----12\------|
C|--3--3--3-3--3-3-3--3-3-3--3-3-3--0--0--0-0--0-0-10\--0-12\------|
G|--1--1--1-1--1-1-1--1-1-1--1-1-1--0--0--0-0--0-0-8-\--0-10\------|
C|----------------------------------0--0--0-0--0-0------0----------|


D|----------------------------------------------------------------------|
A|----------------------------------------------------------------------|
F|--3--3--3-3--3-3-3--3-3-3--3-3-3--------------------------------------|
C|--3--3--3-3--3-3-3--3-3-3--3-3-3--0--0--0-0--0-0-0--0-0-0--0-0-0------|
G|--1--1--1-1--1-1-1--1-1-1--1-1-1--0--0--0-0--0-0-0--0-0-0--0-0-0------|
C|----------------------------------0--0--0-0--0-0-0--0-0-0--0-0-0------|

D|-------------------------------------------|
A|-------------------------------------------|
F|--3--------5----2--------------------------|
C|--3--------5----2--------------------------|
G|--1--------3----0--------------------------|
C|-------------------------5*b-5*b-5*b-------|


D|-------------------------------------------------------------------------------------------------------|
A|-------------------------------------------------------------------------------------------------------|
F|-------------------------------------------------------------------------------------------------------|
C|--7-7-----7-7-----7-7------5-5------3-3-----3-3-----3-3-----2-2-----5-5-----5-5-----5-5-----5-5--------|
G|--5-5-----5-5-----5-5------3-3------1-1-----1-1-----1-1-----0-0-----5-5-----5-5-----5-5-----5-5--------|
C|------0-0-----0-0-----0-0------0-0------0-0-----0-0-----0-0-----0-0-5-5-0-0-5-5-0-0-5-5-0-0-5-5-0-0----|

D|--------------------------------------|
A|--------------------------------------|
F|--6-6-6-6-6-6-6-6--7-7-7-7--9-9-9-9---|
C|--------------------------------------|
G|--4-4-4-4-4-4-4-4--5-5-5-5--7-7-7-7---|
C|--------------------------------------|

D|------------------------------------------------------------------------------------h-p-----------|
A|----------------------------8-6-8~--10-8-10~--10b------6b~----10-11-10-8-10-8-6-8--5-6-5-3-1~-----|
F|--7-6-7~--9-7-9~--10-9-10~-------------------------8~---------------------------------------------|
C|--------------------------------------------------------------------------------------------------|
G|--------------------------------------------------------------------------------------------------|
C|--------------------------------------------------------------------------------------------------|
 |                                                                                       
          |
D|--------------------------------------------------------------------------------------------------|
A|--------------------------------------------------------------------------------------------------|
F|--7---------------5--------3------------------2----------------6-6-6-6-6-6-6-6-7-7-7-7-9-9-9------|
C|--7---------------5--------3------------------2----5----------------------------------------------|
G|--5---------------3--------1------------------0----5-----------4-4-4-4-4-4-4-4-5-5-5-5-7-7-7------|
C|---------------------------------------------------5----------------------------------------------|


D|--10-9-10~--12-10-12~--13-12-13~--15-13-15~--17-13-17--17b-----------------h--h-------h--h--------h--h-------h--h-------|
A|-----------------------------------------------------------------17b~---17-14-15-17t--14-15-17t---14-15-17t--14-15-17t--|
F|------------------------------------------------------------15~---------------------------------------------------------|
C|------------------------------------------------------------------------------------------------------------------------|
G|------------------------------------------------------------------------------------------------------------------------|
C|------------------------------------------------------------------------------------------------------------------------|
 |                                                                                       
                                |
D|------------------------------------------------------------------------------------------------------------------------|
A|------------------------------------------------------------------------------------------------------------------------|
F|--7--------------------5----------3--------------------2----------------6--6--6--6--6--6-6--6----7-7-7-7-9-9-9-9--------|
C|--7--------------------5----------3--------------------2----5-----------------------------------------------------------|
G|--5--------------------3----------1--------------------0----5-----------4--4--4-4--4--4--4--4----5-5-5-5-7-7-7-7--------|
C|------------------------------------------------------------5-----------------------------------------------------------|


D|-------------------------------------------------------------------------------------|
A|--15\--------------------------------------------------------------------------------|
F|-------------------------------------------------------------------------------------|
C|-------------------------------------------------------------------------------------|
G|-------------------------------------------------------------------------------------|
C|-------------------------------------------------------------------------------------|
 |                                                                                     |
D|-------------------------------------------------------------------------------------|
A|-------------------------------------------------------------------------------------|
F|-------------------------------------------------------------------------------------|
C|-------------------------------------------------------------------------------------|
G|-------------------------------------------------------------------------------------|
C|--0--0-0--0-0--0-0--0-0--0-0--0-0--0-0--0-0--0-0--0-0--0-0--0-0--0-0--0-0--0-0-------|


D|----------------------------------------------------------------------|
A|----------------------------------------------------------------------|
F|--3--3--3-3--3-3-3--3-3-3--3-3-3--------------------------------------|
C|--3--3--3-3--3-3-3--3-3-3--3-3-3--0--0--0-0--0-0-0--0-0-0--0-0-0------|
G|--1--1--1-1--1-1-1--1-1-1--1-1-1--0--0--0-0--0-0-0--0-0-0--0-0-0------|
C|----------------------------------0--0--0-0--0-0-0--0-0-0--0-0-0------|


D|-----------------------------------------------------------------|
A|-----------------------------------------------------------------|
F|--3--3--3-3--3-3-3--3-3-3--3-3-3-----------------10\----12\------|
C|--3--3--3-3--3-3-3--3-3-3--3-3-3--0--0--0-0--0-0-10\--0-12\------|
G|--1--1--1-1--1-1-1--1-1-1--1-1-1--0--0--0-0--0-0-8-\--0-10\------|
C|----------------------------------0--0--0-0--0-0------0----------|


D|----------------------------------------------------------------------|
A|----------------------------------------------------------------------|
F|--3--3--3-3--3-3-3--3-3-3--3-3-3--------------------------------------|
C|--3--3--3-3--3-3-3--3-3-3--3-3-3--0--0--0-0--0-0-0--0-0-0--0-0-0------|
G|--1--1--1-1--1-1-1--1-1-1--1-1-1--0--0--0-0--0-0-0--0-0-0--0-0-0------|
C|----------------------------------0--0--0-0--0-0-0--0-0-0--0-0-0------|

D|----------------------------------|
A|----------------------------------|
F|--3--------5----2-----------------|
C|--3--------5----2--------x\-------|
G|--1--------3----0--------x\-------|
C|-------------------------x\-------|


D|----------------------------------------------------------------------|
A|----------------------------------------------------------------------|
F|--3--3--3-3--3-3-3--3-3-3--3-3-3--------------------------------------|
C|--3--3--3-3--3-3-3--3-3-3--3-3-3--0--0--0-0--0-0-0--0-0-0--0-0-0------|
G|--1--1--1-1--1-1-1--1-1-1--1-1-1--0--0--0-0--0-0-0--0-0-0--0-0-0------|
C|----------------------------------0--0--0-0--0-0-0--0-0-0--0-0-0------|


D|-----------------------------------------------------------------|
A|-----------------------------------------------------------------|
F|--3--3--3-3--3-3-3--3-3-3--3-3-3-----------------10\----12\------|
C|--3--3--3-3--3-3-3--3-3-3--3-3-3--0--0--0-0--0-0-10\--0-12\------|
G|--1--1--1-1--1-1-1--1-1-1--1-1-1--0--0--0-0--0-0-8-\--0-10\------|
C|----------------------------------0--0--0-0--0-0------0----------|


D|----------------------------------------------------------------------|
A|----------------------------------------------------------------------|
F|--3--3--3-3--3-3-3--3-3-3--3-3-3--------------------------------------|
C|--3--3--3-3--3-3-3--3-3-3--3-3-3--0--0--0-0--0-0-0--0-0-0--0-0-0------|
G|--1--1--1-1--1-1-1--1-1-1--1-1-1--0--0--0-0--0-0-0--0-0-0--0-0-0------|
C|----------------------------------0--0--0-0--0-0-0--0-0-0--0-0-0------|

D|-------------------------------------------|
A|-------------------------------------------|
F|--3--------5----2--------------------------|
C|--3--------5----2--------------------------|
G|--1--------3----0--------------------------|
C|-------------------------5*b-5*b-5*b----0--|

Key:

p = Pull off
h = Hammer on
b = Bend
r = Release bend
\ = Slide
* = Pinch Harmonic
~ = Virbrato
t = Tremolo Pick
x\ = Pick slide





Comments


Popular Spiritual Beggars tabs & chords
Pelekas Bass Tabs
Treading Water Bass Tabs
Angel Of Betrayal Tabs
On Dark Rivers Tabs
Picking From The Box Tabs
Salt In Your Wounds Tabs
Throwing Your Life Away Tabs


Song lyrics



↑ Back to top | Tablatures and chords are parodies/interpretations of the original songs. You may use it for private study, scholarship, research or language learning purposes only
© 2014 AZChords.com Contact us | Privacy policy | DMCA | Add/correct tabs | Request tabs | Top 50 tabs