» » »

Driving Song Bass tabs (ver.1)

Artists:  A B C D E F G H I J K L M N O P Q R S T U V W X Y Z # 

Driving Song Bass tabs (ver.1)

Spinnerette
Rating:
0/5 (0 votes)

Hard to play? Try these video lessons and learn fast.
                -------------------------------------------------------------------------------
-------------------------------------------------------------------------------


Tuning: E A D G

Verse part A
G|------------------------------------------------------------------------|
D|---------------------------------9---------------------------7----------|
A|------------------7--------------------------------------7-9---9-7-9----|
E|-(9/3)--3-3--3-3-3-----7-7--7-7-7---5-5--5-5-5--9/3--5-5----------------| 
                                                                         alt. ending
G|------------------------------------------------|--------------------|-------------|
D|--5-5--5-5-5--7---------------------------------|--------------------|-------------|
A|------------------5-5--5-5-5-7---7--------------|--------------------|-12-14-------|
E|-----------------------------------7---7-7--9/3-|-7-7-9-9-10-10-9-9--|-------7-7/0-|

Verse part B
G|------------------------------------------------------------------------|
D|---------------------------------9---------------------------7----------|
A|------------------7--------------------------------------7-9---9-7-9----|
E|-------3-3--3-3-3-----7-7--7-7-7----5-5--5-5-5--9/3--5-5----------------|

G|------------------------------------------------------------------------|
D|---------------------------------9--------------------------------------|
A|------------------7-----------------------------------------------------|
E|-------3-3--3-3-3-----7-7--7-7-7---5-5--5-5-5--9/3--5-5-9-9-10-10-9-9---|

Chorus 
G|----------------------------------------------------------------------|
D|-------------7-5--5-5-5-5-5-5-9-7--------------9-7-------------9-7---|
A|-5-5-5-5-5-5---------------------------------------------------------|
E|------------------------------------7-7-7-7-7-7-----7-7-7-7-7-7------|

Verse part A 
Verse part B
Verse part A
Chorus x 4
Verse part A
Verse part B
Verse part A
Chorus x 4
Verse Part A
Verse Part A with alt. ending
Verse Part A (repeat until fade out)

| /  slide up
| \  slide down
| h  hammer-on
| p  pull-off
| ~  hold note
| +  harmonic
| x  Mute note
===============================================================================
            
Hard to play? Try these video lessons and learn fast. | Correct




comments powered by Disqus
↑ Back to top | Tablatures and chords are parodies/interpretations of the original songs. You may use it for private study, scholarship, research or language learning purposes only