» » »

Baptized By Fire Bass tabs (ver.1)

Artists:  A B C D E F G H I J K L M N O P Q R S T U V W X Y Z # 

Baptized By Fire Bass tabs (ver.1)

Spinnerette
Rating:
5/5 (1 vote)

Hard to play? Try these video lessons and learn fast.
                -------------------------------------------------------------------------------
-------------------------------------------------------------------------------


Tuning: E A D G

Verse
G|--------------------------------------------------------------------|
D|--------------------------------------------------------------------|
A|-2-2-2-2-2-2-2-2--5-5-5-5-5-5-5-5-----------------7-7-7-7-7-7-7-7---|
E|----------------------------------5-5-5-5-5-5-5-5-------------------| (3x)

G|--------------------------------------------------------------------|
D|--------------------------------------------------------------------|
A|-2-2-2-2-2-2-2-2----------------------------------------------------|
E|------------------5-5-5-5-5-5-5-5--3-3-3-3-3-3-3-3--0-0-0-0-0-0-0-0-|

Chorus
G|---------------------------------------------------------------------|
D|---------------------------------------------------------------------|
A|-3-3-3-3-3-3-3-3------------------5-5-5-5-5-5-5-5--7-7-7-7-7-7-7-7---|
E|------------------3-3-3-3-3-3-3-3------------------------------------|


Verse
Chorus 	x 4
Verse 
Chorus  x 4
No bass until 03:16
Chorus  x 8

| /  slide up
| \  slide down
| h  hammer-on
| p  pull-off
| ~  hold note
| +  harmonic
| x  Mute note
=================================================================================
            
Hard to play? Try these video lessons and learn fast. | Correct




comments powered by Disqus
↑ Back to top | Tablatures and chords are parodies/interpretations of the original songs. You may use it for private study, scholarship, research or language learning purposes only