» » »

Spinnerette, A Spectral Suspension Tabs (ver.1)

Artists:  A B C D E F G H I J K L M N O P Q R S T U V W X Y Z # 

A Spectral Suspension Tabs (ver.1)

Spinnerette Tabs
 Rating:
3.6/5 (5 votes)
A Spectral Suspension lessons Tabs too difficult? Try these video lessons and learn fast
                I didn't have the patience to do all the rhythm parts, soo..just the melody. :)
Also, I didn't count all the repetition for each section, I'm sure you'll be able 
to figure it out, it's quite easy. 

/ - slide
h - hammer on
p - pulloff


E|----------------------------------------------------------|
B|----------------------------------------------------------|
G|----------------------------------------------------------|
D|---0-1--------------------[repeat however many times]-----|
A|-2-------2-0----------------------------------------------|
D|-------------5---2-4-1------------------------------------|

E|-5/8-7-7-7--5-7-7-7--[x3]---------------------------------|
B|----------------------------------------------------------|
G|-------------------------------[whole thing x4]-----------|
D|----------------------------------------------------------|
A|----------------------------------------------------------|
D|----------------------------------------------------------|

E|----------------------------------------------------------|
B|----------------------------------------------------------|
G|----------------------------------------------------------|
D|---0-1----------------------------------------------------|
A|-2-------2-0----------------------------------------------|
D|-------------5---2-4-1------------------------------------|

Played overtop of ^

E|-7-10-14-11-7---7-5h7-3-3h5p3---0-2-----------------------|
B|-----------------------------------0-0h1p0----------------|
G|---------------------------------------------[repeated]---|
D|----------------------------------------------------------|
A|----------------------------------------------------------|
D|----------------------------------------------------------|

E|-5/8-7-7-7--5-7-7-7-[x3]----------------------------------|
B|----------------------------------------------------------|
G|---------------------------------[whole thing x4]---------|
D|----------------------------------------------------------|
A|----------------------------------------------------------|
D|----------------------------------------------------------|
            
Submit corrections

comments powered by Disqus
↑ Back to top | Spinnerette Tabs for A Spectral Suspension. Lyrics for acoustic guitar and electric guitar. Tablatures and chords are parodies/interpretations of the original songs. You may use it for private study, scholarship, research or language learning purposes only