» » »

Blues In F Bass tabs (ver.1)

Artists:  A B C D E F G H I J K L M N O P Q R S T U V W X Y Z # 

Blues In F Bass tabs (ver.1)

Spencer Davis Group
Rating:
0/5 (0 votes)

Hard to play? Try these video lessons and learn fast.
                The Spencer Davis Group
Written by Steve Winwood; released as a B-side to "Gimme Some Lovin'"

Verse:
G|------ 10---- ------ ------|------ 7----- 8----- 9-----|
D|--------------10-----9-----|8--------------------------|
A|8--------------------------|---------------------------|
E|---------------------------|---------------------------|
 


G|10---- ------ ------ ------|------ ------ ------ ------|
D|-------7------8------10----|10-------------------10----|
A|---------------------------|-------9------8------------|
E|---------------------------|---------------------------|
 


G|------ 7----- 8----- 9-----|10---- ------ ------ ------|
D|8--------------------------|-------7------8------10----|
A|---------------------------|---------------------------|
E|---------------------------|---------------------------|
 


G|------ ------ ------ ------|------ 8----- 7----- ------|
D|10-----7------8------------|8--------------------7-----|
A|---------------------10----|---------------------------|
E|---------------------------|---------------------------|
 


G|------ ------ ------ ------|------ 7----- 8----- 9---10|
D|-------7------8------10----|10-------------------------|
A|10-------------------------|---------------------------|
E|---------------------------|---------------------------|
 


G|------ 8----- 7----- ------|------ ------ ------ ------|
D|---------------------7-----|-------11-----10-----------|
A|---------------------------|10-------------------9-----|
E|---------------------------|---------------------------|
 

Verse:
G|------ 10---- ------ ------|------ 7----- 8----- 9---9-|
D|--------------10-----9-----|8--------------------------|
A|8--------------------------|---------------------------|
E|---------------------------|---------------------------|
 


G|10---- ------ ------ ------|------ ------ ------ ------|
D|-------7------8------10----|10-------------------10--10|
A|---------------------------|-------9------8------------|
E|---------------------------|---------------------------|
 


G|------ 7----- 8----- 9-----|10---- ------ ------ ------|
D|8--------------------------|-------7------8------10----|
A|---------------------------|---------------------------|
E|---------------------------|---------------------------|
 


G|------ ------ ------ ------|------ 8----- 7----- ------|
D|10-----7------8------------|8--------------------7-----|
A|---------------------10----|---------------------------|
E|---------------------------|---------------------------|
 


G|------ ------ ------ ------|------ 7----- 8----- 9-----|
D|-------7------8------10----|10-------------------------|
A|10-------------------------|---------------------------|
E|---------------------------|---------------------------|
 


G|10---- 8----- 7----- ------|------ ------ ------ ------|
D|---------------------7-----|-------11-----10-----------|
A|---------------------------|10-------------------9-----|
E|---------------------------|---------------------------|
 

Verse:
G|------ 12---- ------ ------|------ 9----- 10---- 11----|
D|--------------12-----11----|10-------------------------|
A|10-------------------------|---------------------------|
E|---------------------------|---------------------------|
 


G|12---- ------ ------ ------|------ ------ ------ ------|
D|-------9------10-----12----|12-------------------12----|
A|---------------------------|-------11-----10-----------|
E|---------------------------|---------------------------|
 


G|------ 9----- 10---- 11----|12---- ------ ------ ------|
D|10-------------------------|-------9------10-----12----|
A|---------------------------|---------------------------|
E|---------------------------|---------------------------|
 


G|------ ------ ------ ------|------ 10---- 9----- ------|
D|12-----9------10-----------|10-------------------9-----|
A|---------------------12----|---------------------------|
E|---------------------------|---------------------------|
 


G|------ ------ ------ ------|------ 9----- 10---- 12----|
D|-------9------10-----11----|12-------------------------|
A|12-------------------------|---------------------------|
E|---------------------------|---------------------------|
 


G|12---- 10---- 9----- ------|------ ------ ------ ------|
D|---------------------9-----|-------13-----12-----------|
A|---------------------------|12-------------------11----|
E|---------------------------|---------------------------|
 

Verse:
G|------ 12---- ------ ------|------ 9----- 10---- 11----|
D|--------------12-----11----|10-------------------------|
A|10-------------------------|---------------------------|
E|---------------------------|---------------------------|
 


G|12---- ------ ------ ------|------ ------ ------ ------|
D|-------9------10-----11----|12-------------------12----|
A|---------------------------|-------11-----10-----------|
E|---------------------------|---------------------------|
 


G|------ 9----- 10---- 11----|12---- ------ ------ ------|
D|10-------------------------|-------9------10-----12----|
A|---------------------------|---------------------------|
E|---------------------------|---------------------------|
 


G|------ ------ ------ ------|------ 10---- 9----- ------|
D|12-----9------10-----------|10-------------------9-----|
A|---------------------12----|---------------------------|
E|---------------------------|---------------------------|
 


G|------ ------ ------ ------|------ 9----- 10---- 11----|
D|-------9------10-----11----|12-------------------------|
A|12-------------------------|---------------------------|
E|---------------------------|---------------------------|
 


G|12---- 10---- 9----- ------|------ ------ ------ ------|
D|---------------------9-----|-------13-----12-----------|
A|---------------------------|12-------------------11----|
E|---------------------------|---------------------------|
 

Verse:
G|------ 12---- ------ ------|------ 9----- 10---- 11----|
D|--------------12-----11----|10-------------------------|
A|10-------------------------|---------------------------|
E|---------------------------|---------------------------|
 


G|12---- ------ ------ ------|------ ------ ------ ------|
D|-------9------10-----11----|12-------------------12----|
A|---------------------------|-------11-----10-----------|
E|---------------------------|---------------------------|
 


G|------ 9----- 10---- 11----|12---- ------ ------ ------|
D|10-------------------------|-------9------10-----12----|
A|---------------------------|---------------------------|
E|---------------------------|---------------------------|
 


G|------ ------ ------ ------|------ 10---- 9----- ------|
D|12-----9------10-----------|10-------------------9-----|
A|---------------------12----|---------------------------|
E|---------------------------|---------------------------|
 


G|------ ------ ------ ------|------ 9---9- 10---- 11----|
D|-------9---9--10-----11----|12-------------------------|
A|12-------------------------|---------------------------|
E|---------------------------|---------------------------|
 


G|12---- 10---- 9----- ------|------ ------ ------ ------|
D|---------------------9-----|-------13-----12-----------|
A|---------------------------|12-------------------11----|
E|---------------------------|---------------------------|
 

Verse:
G|------ 12---- ------ ------|------ 9----- 10---- 11----|
D|--------------12-----11----|10-------------------------|
A|10-------------------------|---------------------------|
E|---------------------------|---------------------------|
 


G|12---- ------ ------ ------|------ ------ ------ ------|
D|-------9------10-----12----|12-------------------12----|
A|---------------------------|-------11-----10-----------|
E|---------------------------|---------------------------|
 


G|------ 9----- 10---- 11----|12---- ------ ------ ------|
D|10-------------------------|-------9------10-----11----|
A|---------------------------|---------------------------|
E|---------------------------|---------------------------|
 


G|------ ------ ------ ------|------ 10---- 9----- ------|
D|12-----9------10-----------|10-------------------9-----|
A|---------------------12----|---------------------------|
E|---------------------------|---------------------------|
 


G|------ ------ ------ ------|------ 9----- 10---- 11----|
D|-------9------10-----11----|12-------------------------|
A|12-------------------------|---------------------------|
E|---------------------------|---------------------------|
 


G|12---- 10---- 9----- ------|------ ------ ------ ------|
D|---------------------9-----|-------13-----12-----------|
A|---------------------------|12-------------------11----|
E|---------------------------|---------------------------|
 

Verse:
G|------ 12---- ------ ------|------ 9---9- 10---- 11----|
D|--------------12-----11----|10-------------------------|
A|10-------------------------|---------------------------|
E|---------------------------|---------------------------|
 


G|12---- ------ ------ ------|------ ------ ------ ------|
D|-------9---9--10--10-11--11|12-------------------12----|
A|---------------------------|-------11-----10-----------|
E|---------------------------|---------------------------|
 


G|------ 9----- 10---- 11----|12---- ------ ------ ------|
D|10-------------------------|-------9------10-----11----|
A|---------------------------|---------------------------|
E|---------------------------|---------------------------|
 


G|------ ------ ------ ------|------ 10---- 9----- ------|
D|12-----9------10-----------|10-------------------9-----|
A|---------------------12----|---------------------------|
E|---------------------------|---------------------------|
 


G|------ ------ ------ ------|------ 9----- 10---- 12----|
D|-------9------10-----12----|12-------------------------|
A|12-------------------------|---------------------------|
E|---------------------------|---------------------------|
 


G|12---- 10---- 9----- ------|------ ------ ------ ------|
D|---------------------9-----|-------13-----12-----------|
A|---------------------------|12-------------------11----|
E|---------------------------|---------------------------|
 

Verse:
G|------ 12---- ------ ------|------ 9----- 10---- 11----|
D|--------------12-----11----|10-------------------------|
A|10-------------------------|---------------------------|
E|---------------------------|---------------------------|
 


G|12---- ------ ------ ------|------ ------ ------ ------|
D|-------9------10-----12----|12-----10------------12----|
A|---------------------------|--------------10-----------|
E|---------------------------|---------------------------|
 


G|------ 9----- 10---- 11----|12---- ------ ------ ------|
D|10-------------------------|-------9------10-----11----|
A|---------------------------|---------------------------|
E|---------------------------|---------------------------|
 


G|------ ------ ------ ------|------ 10---- 9----- ------|
D|12-----9------10-----------|10-------------------9-----|
A|---------------------12----|---------------------------|
E|---------------------------|---------------------------|
 


G|------ ------ ------ ------|------ 9----- 10---- 12----|
D|-------9------10-----11----|12-------------------------|
A|12-------------------------|---------------------------|
E|---------------------------|---------------------------|
 


G|12---- 10---- 9----- ------|------ ------ ------ ------|
D|---------------------9-----|-------13-----12-----------|
A|---------------------------|12-------------------11----|
E|---------------------------|---------------------------|
 

Verse:
G|------ 12---- ------ ------|------ 9----- 10---- 11----|
D|--------------12-----11----|10-------------------------|
A|10-------------------------|---------------------------|
E|---------------------------|---------------------------|
 


G|12---- ------ ------ ------|------ ------ ------ ------|
D|-------9------10-----12----|12-------------------12----|
A|---------------------------|-------11-----10-----------|
E|---------------------------|---------------------------|
 


G|------ 9----- 10---- 11----|12---- ------ ------ ------|
D|10-------------------------|-------9------10-----11----|
A|---------------------------|---------------------------|
E|---------------------------|---------------------------|
 


G|------ ------ ------ ------|------ 10---- 9----- ------|
D|12-----9------10-----------|10-------------------9-----|
A|---------------------12----|---------------------------|
E|---------------------------|---------------------------|
 


G|------ ------ ------ ------|------ 9----- 10---- 12----|
D|-------9------10-----11----|12-------------------------|
A|12-------------------------|---------------------------|
E|---------------------------|---------------------------|
 


G|12---- 10---- 9----- ------|------ ------ ------ ------|
D|------------------9--------|-------13-----12-----------|
A|-------------------------12|---------------------11----|
E|---------------------------|---------------------------|
 

Verse:
G|------ 12---- ------ ------|------ 9----- 10---- 11----|
D|--------------12-----11----|10-------------------------|
A|10-------------------------|---------------------------|
E|---------------------------|---------------------------|
 


G|12---- ------ ------ ------|------ ------ ------ ------|
D|-------9------10-----12----|12-------------------12----|
A|---------------------------|-------11-----10-----------|
E|---------------------------|---------------------------|
 


G|------ 9----- 10---- 11----|12---- ------ ------ ------|
D|10-------------------------|-------9------10-----12----|
A|---------------------------|---------------------------|
E|---------------------------|---------------------------|
 


G|------ ------ ------ ------|------ 10---- 9----- ------|
D|12-----9------10-----------|10-------------------9-----|
A|---------------------12----|---------------------------|
E|---------------------------|---------------------------|
 


G|------ ------ ------ ------|------ 9----- 10---- 11----|
D|-------9------10-----11----|12-------------------------|
A|12-------------------------|---------------------------|
E|---------------------------|---------------------------|
 


G|12---- 10---- 9----- ------|------ ------ ------ ------|
D|---------------------9-----|-------13-----12-----------|
A|---------------------------|12-------------------11----|
E|---------------------------|---------------------------|
 

Verse:
G|------ 12---- ------ ------|------ 9----- 10---- 11----|
D|--------------12-----11----|10-------------------------|
A|10-------------------------|---------------------------|
E|---------------------------|---------------------------|
 


G|12---- ------ ------ ------|------ ------ ------ ------|
D|-------9------10-----12----|12-------------------12----|
A|---------------------------|-------11-----10-----------|
E|---------------------------|---------------------------|
 


G|------ 9----- 10---- 11----|12---- ------ ------ ------|
D|10-------------------------|-------9------10-----11----|
A|---------------------------|---------------------------|
E|---------------------------|---------------------------|
 


G|------ ------ ------ ------|------ 10---- 9----- ------|
D|12-----9------10-----------|10-------------------9-----|
A|---------------------12----|---------------------------|
E|---------------------------|---------------------------|
 


G|------ ------ ------ ------|------ 9----- 10---- 11----|
D|-------9------10-----11----|12-------------------------|
A|12-------------------------|---------------------------|
E|---------------------------|---------------------------|
 


G|12---- 10---- 9----- ------|------ ------ ------ ------|
D|---------------------9-----|-------13-----12-----------|
A|---------------------------|12-------------------11----|
E|---------------------------|---------------------------|
 

Verse:
G|------ 12---- ------ ------|------ 9----- 10---- 12----|
D|--------------12-----11----|10-------------------------|
A|10-------------------------|---------------------------|
E|---------------------------|---------------------------|
 


G|12---- ------ ------ ------|------ ------ ------ ------|
D|-------9------10-----12----|12-------------------12----|
A|---------------------------|-------11-----10-----------|
E|---------------------------|---------------------------|
 


G|------ 9----- 10---- 11----|12---- ------ ------ ------|
D|10-------------------------|-------9------10-----11----|
A|---------------------------|---------------------------|
E|---------------------------|---------------------------|
 


G|------ ------ ------ ------|------ 10---- 9----- ------|
D|12-----9------10-----------|10-------------------9-----|
A|---------------------12----|---------------------------|
E|---------------------------|---------------------------|
 


G|------ ------ ------ ------|------ 9----- 10---- 11----|
D|-------9------10-----11--11|12-------------------------|
A|12-------------------------|---------------------------|
E|---------------------------|---------------------------|
                One,                     two!


G|12---- 10---- 9----- ------|------ ------ ------ ------|
D|---------------------9-----|-------13-----12-----------|
A|-------------------------12|---------------------11--10|
E|---------------------------|---------------------------|
 

Verse:
G|------ 12---- ------ ------|------ 9----- 10---- 11----|
D|--------------12-----11----|10-------------------------|
A|---------------------------|---------------------------|
E|---------------------------|---------------------------|
 


G|12---- ------ ------ ------|------ ------ ------ ------|
D|-------9------10-----11----|12-------------------12--10|
A|---------------------------|-------11-----10-----------|
E|---------------------------|---------------------------|
 


G|------ 9----- 10---- 11----|12---- ------ ------ ------|
D|---------------------------|-------9------10-----11----|
A|---------------------------|---------------------------|
E|---------------------------|---------------------------|
 


G|------ ------ ------ ------|------ 10---- 9----- ------|
D|12-----9------10-----------|10-------------------9-----|
A|---------------------12----|---------------------------|
E|---------------------------|---------------------------|
 


G|------ ------ ------ ------|------ 9----- 10---- 11----|
D|-------9------10-----11----|12-------------------------|
A|12-------------------------|---------------------------|
E|---------------------------|---------------------------|
 


G|12---- 10---- 9----- ------|------ ------ ------ ------|
D|---------------------9-----|-------13-----12-----------|
A|---------------------------|12-------------------11----|
E|---------------------------|---------------------------|
 

Verse:
G|------ 12---- ------ ------|------ 9----- 10---- 11----|
D|--------------12-----11----|10-------------------------|
A|10-------------------------|---------------------------|
E|---------------------------|---------------------------|
 


G|12---- ------ ------ ------|------ ------ ------ ------|
D|-------9------10-----12----|12-------------------12----|
A|---------------------------|-------11-----10-----------|
E|---------------------------|---------------------------|
 


G|------ 9----- 10---- 11----|12---- ------ ------ ------|
D|10-------------------------|-------9------10-----11----|
A|---------------------------|---------------------------|
E|---------------------------|---------------------------|
 


G|------ ------ ------ ------|------ 10---- 9----- ------|
D|12-----9------10-----------|10-------------------9-----|
A|---------------------12----|---------------------------|
E|---------------------------|---------------------------|
 


G|------ ------ ------ ------|------ 9----- 10---- 11----|
D|-------9------10-----11----|12-------------------------|
A|12-------------------------|---------------------------|
E|---------------------------|---------------------------|
 


G|------ ------ ------ ------|------ ------ ------ ------|
D|----8---------10-----11----|12-------------------------|
A|---------------------------|-------11--10--------10----|
E|---------------------------|---------------------------|

Please e-mail me for any corrections, or write a comment.
            
Hard to play? Try these video lessons and learn fast. | Correct




comments powered by Disqus
↑ Back to top | Tablatures and chords are parodies/interpretations of the original songs. You may use it for private study, scholarship, research or language learning purposes only