» » »

Speechwriters Llc, Southern California Tabs (ver.1)

Artists:  A B C D E F G H I J K L M N O P Q R S T U V W X Y Z # 

Southern California Tabs (ver.1)

Speechwriters Llc Tabs
 Rating:
4.2/5 (5 votes)
Southern California lessons Tabs too difficult? Try these video lessons and learn fast
                           Southern California- Speechwriters LLC
-------------------------------------------------------------------------------
Heard this song on Pandora and fell in love with it.

Tuning: Standard
Pattern:
Intro
Verse x2
Pre Chorus x2
Verse x2
Chorus x2
Pre Chorus x2
Verse x2
Chorus x2
Bridge and “Ohhs”
Pre Chorus x2
Ohhs
Intro and Verses:

Sunlight hits a sign and I’m in Union Station
e|--2------------------------------------------------------------------------|
B|--2------------------------------------------------------------------------|
G|--4------------------------------------------------------------------------|
D|--4------------------------------------------------------------------------|
A|--2------------------------------------------------------------------------|
E|--2------------------------------------------------------------------------|

My arms are heavy in their sleeves
e|--4-------------------------------2--------------------------------------------|
B|--4-------------------------------2--------------------------------------------|
G|--4-------------------------------3--------------------------------------------|
D|--6-------------------------------4--------------------------------------------|
A|--6-------------------------------4--------------------------------------------|
E|--4-------------------------------2--------------------------------------------|
Pre Chorus:
All I can tell you is my love’s unfocused…drifting overseas
e|--0------------------------2-----------------------4--------------2-------2|
B|--0------------------------2-----------------------4--------------2-------2|
G|--1------------------------4-----------------------4--------------3-------2|
D|--2-------------------------4-----------------------6-------------4-------4|
A|--2-------------------------2-----------------------6-------------4-------4|
E|--0-------------------------2-----------------------4--------------3------2|

Chorus:
When everything in town’s been taken down for renovations..
e|--0--------------------2----------------------4--------------4----------|
B|--0--------------------2----------------------4--------------4----------|
G|--1-------------------3-----------------------4--------------6----------|
D|--2-------------------4-----------------------6---------------6---------|
A|--2-------------------4-----------------------6----------------4--------|
E|--0--------------------2----------------------4----------------4--------|

The hardest part is finding your way home
e|--0--------------------2----------------------4-----------------------|
B|--0--------------------2----------------------4-----------------------|
G|--1-------------------3-----------------------4-----------------------|
D|--2-------------------4-----------------------6-----------------------|
A|--2-------------------4-----------------------6-----------------------|
E|--0--------------------2----------------------4-----------------------|

Bridge
And you know it’s true…..
e|---4------------5----------7-------------------------------------------------|
B|---4-----------5-----------7-------------------------------------------------|
G|---4-----------5-----------7-------------------------------------------------|
D|---6-----------7------------9------------------------------------------------|
A|---6-----------7------------9------------------------------------------------|
E|---4-----------5-------------7-----------------------------------------------|

 Ohhhh
e|---4------------5----------7-------------------------------------------------|
B|---4-----------5-----------7-------------------------------------------------|
G|---4-----------5-----------7-------------------------------------------------|
D|---6-----------7------------9------------------------------------------------|
A|---6-----------7------------9------------------------------------------------|
E|---4-----------5-------------7-----------------------------------------------|
            
Submit corrections

comments powered by Disqus
↑ Back to top | Speechwriters Llc Tabs for Southern California. Lyrics for acoustic guitar and electric guitar. Tablatures and chords are parodies/interpretations of the original songs. You may use it for private study, scholarship, research or language learning purposes only