>
 >
Or Something

Or Something Guitar Tabs

Speechwriters Llc - Or Something chords, tabs, tablatures, lyrics

Guitar lessons | Add/correct | Request | Top 50 tabs Artists:  A B C D E F G H I J K L M N O P Q R S T U V W X Y Z 0-9

Or Something Guitar Tabs – Speechwriters Llc

CD, Sheet music, Poster

Do you like Or Something? Share with your friends now
Tabs
They play this with their guitars tuned down a whole step, but this tab is in standard. 
You can play the whole song except for a couple effects like harmonics.


e-----------|
B-----------|
G-----------|
D-----------|
A-3-5-7-3---|
E-3-3-5-1---|    3x

e-------------------|
B-------------------|
G-------------------|
D-------------------|
A-5-3-3-3-3-2-2h3---|
E-3-5-1-1-1-1-1h3---|

This is the bulk of the song. They do a lot of decorative stuff which I'll try to tab in 
the order they appear

This one is at 0:35 approx.
e-----------|
B-----------|
G-----------|
D-3-3-3-2---|
A---------3-|
E-----------|

approx 0:43
e--------|
B--------|
G--------|
D--------|
A-h3s10--|
E--------|


Approx 0:47 (I have NO CLUE how they are making the effect though.)
e-0-----------------|
B---8---------------|
G---9---------------|
D---10--------------|
A-------------------|
E-------------------|


:50 (hard to hear)
e-------------------|
B-------------------|
G-------------------|
D-------------------|
A-------------------|
E-3-3-8-------------|


Things start overlapping here - sorry

:55
e-------------------|
B----8--------------|
G----9--------------|
D----10-------------|
A-10----------------|
E-------------------|

e--------|
B--------|
G--------|
D--------|
A-h3s10--|
E--------|

:55
   C    CM7
e--0--0--0----------|
B--1--1--0----------|
G--0--0--0----------|
D--2--2--2----------|
A--3--3--3----------|
E-------------------|


approx. :45 - same chords just played in a different order and twice per each
e-----------|
B-----------|
G-----------|
D-----------|
A--5-7-3-3--|
E--3-5-1-3--|


Things start repeating after that and this is essentially the whole of the songs 
parts/effects etc. This was done with 2 guitars I believe.





Comments


Popular Speechwriters Llc tabs & chords
Anodyne Chords
Balk Chords
Beach Song Chords
Naked And Stoned Chords
Southern California Tabs
Beach Song Ukulele
Chbb Ukulele
Echolocation Ukulele
Hitchhikers Guide Ukulele
Photo 14 Ukulele


Song lyrics



↑ Back to top | Tablatures and chords are parodies/interpretations of the original songs. You may use it for private study, scholarship, research or language learning purposes only
© 2014 AZChords.com Contact us | Privacy policy | DMCA | Add/correct tabs | Request tabs | Top 50 tabs