» » »

Specials, Too Much Too Young Bass tabs (ver.2)

Artists:  A B C D E F G H I J K L M N O P Q R S T U V W X Y Z # 

Too Much Too Young Bass tabs (ver.2)

Specials Tabs
 Rating:
4/5 (4 votes)
Too Much Too Young lessons Tabs too difficult? Try these video lessons and learn fast
1
                A great Specials track, sounds best fingered with your thum
resting on the neck instead of the pickup. Enjoy

Verse:
G----------------------------------------------|
D----5-5-5---------------------------5---------|
A--5-------5-7-----------7---5-----5---5-7-8-7-|
E--------------8-8-8-8-8-------3-3-------------|

G--------------------------------------|
D----4-7----4-7-4-5--7/-7/---7-7-5-4---|
A--5------5--------------------------7-|
E--------------------------------------|

Chorus:
G----------------------------------|
D----7---6---5---6---7---6---5---6-|
A--5---4---3---4---5---4---3---4---|
E----------------------------------|

G----------------------------|
D----------------------------|
A--5-5-5-5-5-----5-5-5-5-5---|
E------------5-------------5-|
            
Submit corrections

comments powered by Disqus
↑ Back to top | Specials Bass for Too Much Too Young. Lyrics for acoustic guitar and electric guitar. 1 Tablatures and chords are parodies/interpretations of the original songs. You may use it for private study, scholarship, research or language learning purposes only