» » »

Specials, Too Hot Bass tabs (ver.1)

Artists:  A B C D E F G H I J K L M N O P Q R S T U V W X Y Z # 

Too Hot Bass tabs (ver.1)

Specials Tabs
Rating:
0/5 (0 votes)
Too Hot lessons Tabs too difficult? Try these video lessons and learn fast
                Band : The Specials
Title : Too Hot
Difficulty : Novice
Tuning : Standard



G|-----------------------------------------------------------------------|
D|----------------------------------------------------------x-7----------|
A|---------7-5-7---3-3-3---5--------------7-5-7----3-3-3--5--------------|
E|--3-3-3--------------------2-5---3-3-3---------------------------------|

G|-----------------------------------------------------------------------|
D|----------------------------------------------------------4-7----------|
A|---------7-5-7---3-3-3---5--------------7-5-7----3-3-3--5--------------|
E|--3-3-3--------------------2-5---3-3-3---------------------------------|

G|-----------------------|
D|-----------------------|
A|------------2-5--------|
E|--3-3-3---3------------|x2


G|-------------------------------|---------------|  |----------------------|
D|-----------4-7------------7-4--|---------------|  |-----------4-7--------|
A|--5-5-5--5-------5-5-5--5------|5-5-5--5-------|  |--5-5-5--5------------|
E|-------------------------------|---------2-5---|x5|----------------------|

G|------------------------|
D|------------------------|
A|------------2-5---------|
E|--3-3-3---3-------------|

G|-----------------------|
D|-----------------------|
A|------------5-2--------|
E|--3-3-3---3------------|

G|-----------------------|
D|-----------------------|
A|------------2-5--------|
E|--3-3-3---3------------|x2

G|--------------------------------|---------------|
D|-----------4-7-------------7-4--|---------------|
A|--5-5-5--5--------5-5-5--5------|5-5-5--5-------|
E|--------------------------------|---------2-5---|x2

G|------------------------|
D|------------------------|
A|------------2-5---------|
E|--3-3-3---3-------------|

G|-----------------------|
D|-----------------------|
A|------------5-2--------|
E|--3-3-3---3------------|

G|-----------------------|
D|-----------------------|
A|------------2-5--------|
E|--3-3-3---3------------|x2

G|--------------------------------|---------------|
D|-----------4-7-------------7-4--|---------------|
A|--5-5-5--5--------5-5-5--5------|5-5-5--5-------|
E|--------------------------------|---------2-5---|x6

G|----------------------------|
D|----------------------------|
A|------------2-5-------------|
E|--3-3-3---3-----------------|

G|------------------------------|
D|------------------------------|
A|------------------------------|
E|--3-3-3---3-0-1---------------|

G|----------------------------|
D|----------------------------|
A|------------2-5-------------|
E|--3-3-3---3-----------------|x2

G|--------------------------------|---------------|
D|-----------4-7-------------7-4--|---------------|
A|--5-5-5--5--------5-5-5--5------|5-5-5--5-------|
E|--------------------------------|---------2-5---|x2

G|------------------------|
D|------------------------|
A|------------2-5---------|
E|--3-3-3---3-------------|

G|-----------------------|
D|-----------------------|
A|------------5-2--------|
E|--3-3-3---3------------|

G|-----------------------|
D|-----------------------|
A|------------2-5--------|
E|--3-3-3---3------------|x2

G|----------------------------------------------------------------------------|
D|-----------4-7-----------------------------4-7-----------9---10---12--------|
A|--5-5-5--5-------5-5-5--5---------5-5-5--5--------5-5-----------------------|
E|--------------------------2-5--------------------------7---8---10-----------|


G|------------------------|
D|------------------------|
A|------------2-5---------|
E|--3-3-3---3-------------|

G|------------------------|
D|------------------------|
A|------------------------|
E|--3-3-3---3-0-1---------|

G|-----------------------|
D|-----------------------|
A|------------2-5--------|
E|--3-3-3---3------------|x2

G|-----------------------------------------------------------------|
D|-----------4-7-------------------------------------------4-7-----|
A|--5-5-5--5-------5-5-5--5--------5-5-5--5-------5-5-5--5---------|
E|--------------------------2-5-------------2-5--------------------|


G|------------------------|
D|------------------------|
A|------------2-5---------|
E|--3-3-3---3-------------|

G|-----------------------|
D|-----------------------|
A|------------5-2--------|
E|--3-3-3---3------------|

G|-----------------------|
D|-----------------------|
A|------------2-5--------|
E|--3-3-3---3------------|x2

G|-----------------------------------------------------------------|
D|-----------4-7-------------------------------------------7-4-----|
A|--5-5-5--5-------5-5-5--5--------5-5-5--5-------5-5-5--5---------|
E|--------------------------2-5-------------2-5--------------------|

G|----------------------------|
D|----------------------------|
A|------------2-5-------------|
E|--3-3-3---3-----------------|

G|-------------------------------|
D|-------------------------------|
A|-------------------------------|
E|--3-3-3---3-0-1----------------|

G|-----------------------------------------------------------------------------------------------|
D|-----------------------------------------------------------------------------------------------|
A|-------------------2-2-3-3-4-4--5-5-2---2-3-5--5-2---2-5-2-5---5-5-2---2-3-5--55555555---------|
E|--3-3-3--3-3--3--3--------------------5------------5-----------------5-----------------3333----|
            

comments powered by Disqus
↑ Back to top | Specials Bass for Too Hot. Lyrics for acoustic guitar and electric guitar. Tablatures and chords are parodies/interpretations of the original songs. You may use it for private study, scholarship, research or language learning purposes only