» » »

Specials, Stupid Marriage Bass tabs (ver.1)

Artists:  A B C D E F G H I J K L M N O P Q R S T U V W X Y Z # 

Stupid Marriage Bass tabs (ver.1)

Specials Tabs
 Rating:
4/5 (4 votes)
Stupid Marriage lessons Tabs too difficult? Try these video lessons and learn fast
                
The Specials - Stupid Marriage
------------------------------
Verso/Verse , Bridge(w/keyboards) & Intro

I was walking down the street one night
When I saw her silhouette in her bathroom light
Her way of life may be nothing to hide.

E 0-4--------------4-|
A ----2-4---4---2----|
D --------2---2------|
G -------------------|

Pre-Coro/Chorus
With her frosted glass shattered, curtains open wide.

E 0-4---------------|
A ----2-4-0-0-2-----|
D ------------------|
G ------------------|

Coro/Chorus

Naked woman, naked man,
Where did you get that nice sun tan?
You live in a castle built of sand
Naked woman, naked man...


E --2-5----------------0-3----3----------|
A 5-----2-5-0-4---4--3----0-3--2-3-4-5---|
D --------------2--2---------------------|
G ---------------------------------------|
se repite varias veces/ it repeats a few times

Parte Final(empieza a ponerse rapido)/Final Part(gets a little fast)

Naked woman, naked man,
where did you get that nice sun tan?
(Order in my courtroom)

E ---------------------------------------------------3-3--------5---|
A 5-5-------------0-0-4-4-----------3-------------------2-2-3-3-5---|
D ----4-4-7-7-------------2-2-4---------2-2-3-3---------------------|
G ------------4-7---------------2---------------2-5-----------------|

Naked woman, naked man,
where did you get that nice sun tan?

E --------------------------------------------------------------|
A 5-5-------------0-0-4-4-----------3-3----------------2-3-4----|
D ----4-4-7-7-------------2-2-4--------2-2-3-3-4-4-5-5----------|
G ------------4-7---------------2-------------------------------|

Naked woman, naked man,
where did you get that nice sun tan?
(Hush up)

E --------5-5-5-5--------------|
A 5-5-5-5--------3-3-3-3-------|
D ----------------------3-4-5--|
G -----------------------------|

E --------5-5-5-5--------3---------|
A 5-5-5-5--------3-3-3-3--2-3-4-5--|
D ---------------------------------|
G ---------------------------------|

E --------5-5-5-5--------1-2-3--------|
A 5-5-5-5--------3-3-3-3------2-3-4-5-|
D ------------------------------------|
G ------------------------------------|

Court in session.
What do you mean
'Oy oy oy'? Must have court in session.
Order. My name is Judge Roughneck, -------------------->Intro
And I will not tolerate any disobedience in my courtroom.
Rude boy, you have been brought in
Front of me and charged
With smashing this woman's window.
Before I sentence you,
What have you got to say in your defense?

I was walking down the street one night------------------>Verso/Verse
When I saw her silhouette in her bathroom light
Her way of life may be nothing to hide
With her frosted glass shattered, curtains open wide----->pre-Coro/Chorus

Naked woman, naked man,-------------------------------->coro/Chorus
Where did you get that nice sun tan?
You live in a castle built of sand
Naked woman, naked man...

Naked from your bath,---------------------------------->Mute
You go naked to your bed
And I can't stop the hatred
Running through my head-------------------------------->Intro

Silence in court. Order.
Rude boy, you have led me to believe
That you was going out with a girl,
And she left you and married someone else.
So you got drunk,
And smashed up your ex-girlfriend's property.
I have come to one conclusion,
That is to sentence you to five months in prison.
Before they take you down to the cells,
What have you got to say for yourself?

He wanted to be something but she knows he never will------------>verso/verse
She's got him where she wanted
And forgot to take her pill
And he thinks that
She'll be happy when she's hanging out the nappies
If that's a happy marriage----------------------------------->pre chorus/coro
I'd prefer to be unhappy!

Married woman, married man...---------------------------------->Coro/Chorus
Where did you get that family plan?
Mrs. Ewe and Mr. Ram
Where did you get that lovely lamb?

Naked woman, naked man,--------------------------------------->Final Part
where did you get that nice sun tan?
(Order in my courtroom)
Naked woman, naked man,
where did you get that nice sun tan?
(Hush up)
Naked woman, naked man,
where did you get that nice sun tan?
(Take him away)
            
Submit corrections

comments powered by Disqus
↑ Back to top | Specials Bass for Stupid Marriage. Lyrics for acoustic guitar and electric guitar. Tablatures and chords are parodies/interpretations of the original songs. You may use it for private study, scholarship, research or language learning purposes only