» » »

Pearls Cafe Tabs (ver.1)

Artists:  A B C D E F G H I J K L M N O P Q R S T U V W X Y Z # 

Pearls Cafe Tabs (ver.1)

Specials
Rating:
0/5 (0 votes)

Hard to play? Try these video lessons and learn fast.
                -------------------------------------------------------------------------------
                             PEARL'S CAFE - The Specials
-------------------------------------------------------------------------------

Tuning: Standard

Intro riff
e|---------------------------------------------------------------------------|
B|-13----12----10---8--------12----10---8------------13----12---10---8-------|
G|----12----10----9-------12----10----9---7-9-----12----10----9----7---------|
D|---------------------------------------------------------------------------|
A|---------------------------------------------------------------------------|
E|---------------------------------------------------------------------------|

e|---------------------------------------------------------------------------|
B|---------------------------------------------------------------------------|
G|-9-8-7-----7-9-7-----------------------------------------------------------|
D|-----------------10-7----9-10----------------------------------------------|
A|---------------------------------------------------------------------------|
E|---------------------------------------------------------------------------|

Guitar behind intro riff
   G                      C                     G       Em D#m Dm   B  C
e|-x-3-x-3-x-3-x-3-3------x-8-x-8-x-8-7-8-------x-3-x-3-7--6---5-------------|
B|-x-3-x-3-x-3-x-3-3------x-8-x-8-x-8-7-8-------x-3-x-3-8--7---6----4--5-----|
G|-x-4-x-4-x-4-x-4-4------x-9-x-9-x-9-8-9-------x-4-x-4-9--8---7----4--5-----|
D|-----------------5------------------9-10--------------9--8---7----4--5-----|
A|-----------------5------------------9-10--------------7--6---5----2--3-----|
E|-----------------3------------------7-8------------------------------------|

Verses
   F               G               C               F
e|-x-1-x-1-x-1-x-1-x-3-x-3-x-3-x-3-x-3-x-3-x-3-x-3-x-1-x-1-x-1-x-1-----------|
B|-x-1-x-1-x-1-x-1-x-3-x-3-x-3-x-3-x-5-x-5-x-5-x-5-x-1-x-1-x-1-x-1-----------|
G|-x-2-x-2-x-2-x-2-x-4-x-4-x-4-x-4-x-5-x-5-x-5-x-5-x-2-x-2-x-2-x-2-----------|
D|---------------------------------------------------------------------------|
A|---------------------------------------------------------------------------|
E|---------------------------------------------------------------------------|

   G               F                 C
e|-x-3-x-3-x-3-x-3-x-1-x-1-x-1-x-1-x-3-x-3-x-3-x-3---------------------------|
B|-x-3-x-3-x-3-x-3-x-1-x-1-x-1-x-1-x-5-x-5-x-5-x-5---------------------------|
G|-x-4-x-4-x-4-x-4-x-2-x-2-x-2-x-2-x-5-x-5-x-5-x-5-5-7-9---------------------|
D|-------------------------------------------------5-7-9---------------------|
A|-------------------------------------------------3-5-7---------------------|
E|---------------------------------------------------------------------------|

Choruses
   C       Dm      F               C       Dm
e|-x-3-x-3-x-5-x-5-x-1-x-1-x-1-x-1-x-3-x-3-x-5-x-5---------------------------|
B|-x-5-x-5-x-6-x-6-x-1-x-1-x-1-x-1-x-5-x-5-x-6-x-6---------------------------|
G|-x-5-x-5-x-7-x-7-x-2-x-2-x-2-x-2-x-5-x-5-x-7-x-7-7--9----------------------|
D|-------------------------------------------------7--9----------------------|
A|-------------------------------------------------5--7----------------------|
E|---------------------------------------------------------------------------|

   C       Dm      F
e|-x-3-x-3-x-5-x-5-x-1-x-1-x-1-x-1-------------------------------------------|
B|-x-5-x-5-x-6-x-6-x-1-x-1-x-1-x-1-------------------------------------------|
G|-x-5-x-5-x-7-x-7-x-2-x-2-x-2-x-2-------------------------------------------|
D|---------------------------------------------------------------------------|
A|---------------------------------------------------------------------------|
E|---------------------------------------------------------------------------|

   "Cares......Nobody cares"
e|---------------------------------------------------------------------------|
B|---------------------------------------------------------------------------|
G|-5-----------7-7----12-----------------------------------------------------|
D|-5-----------7-7----12-----------------------------------------------------|
A|-3-----------5-5----10-----------------------------------------------------|
E|---------------------------------------------------------------------------|

Variation of the intro riff played after the second chorus and at the very
end of the song
e|---------------------------------------------------------------------------|
B|-13----12----10---8--------12----10---8-----8--7-8-----13----12---10---8---|
G|----12----10----9-------12----10----9---7-9---------12----10----9----7-----|
D|---------------------------------------------------------------------------|
A|---------------------------------------------------------------------------|
E|---------------------------------------------------------------------------|

e|---------------------------------------------------------------------------|
B|---------------------------------------------------------------------------|
G|-9-8-7-----7-9-7-----------------------------------------------------------|
D|-----------------10-7----9-10----------------------------------------------|
A|---------------------------------------------------------------------------|
E|---------------------------------------------------------------------------|

I'm not good enough at transcribing to figure out the (organ?) solo, but I'm
pretty sure the guitar part is the same as the verses.
            
Hard to play? Try these video lessons and learn fast. | Correct




comments powered by Disqus
↑ Back to top | Tablatures and chords are parodies/interpretations of the original songs. You may use it for private study, scholarship, research or language learning purposes only