» » »

Nite Klub Bass tabs (ver.1)

Artists:  A B C D E F G H I J K L M N O P Q R S T U V W X Y Z # 

Nite Klub Bass tabs (ver.1)

Specials
Rating:
2/5 (1 vote)

Hard to play? Try these video lessons and learn fast.
                
Intro 
G:-------------------------------------------------|
D:----------------------------4-5-7----------------|
A:----5---5-6-7-------2-3-5-------------5-----5---6|
E:-5------------5---5---------------5------77---7--|

Verse
G:----------------------------|-----------7-7-----|
D:----------------------------|-------------------|
A:-7------------7-----5---5---|-7---------------5-|
E:---0-0--4-5-7-----7---7---7-|----0-0--------7---|

G:----------------------------|---------------12-11-7-8-|
D:----------------------------|-------------------------|
A:-7------------7-----5---5---|-7---------7/10--9--5-6--|
E:---0-0--4-5-7-----7---7---7-|----0-0------------------|

Fill
G:----------------|
D:----------------|
A:----------------|
E:-0-2-0-3-0-4-4--|

Chorus

G:---------------------------|-----------------------------|
D:-77--------7------44-55-77-|-77--------7-----------------|
A:----9--7-9----5-5----------|----9--7-9----5-5--33-22-00--|
E:---------------------------|-----------------------------|
G:---------------------------|----------------|
D:-77--------7------44-55-77-| ---------------|
A:----9--7-9----5-5----------|----5-----6-----| 
E:---------------------------|-77---7---------|

Verse
G:----------------------------|--------------------7-7-----|
D:----------------------------|----------------------------|
A:-7------------7-----5---5---|-7------------------------5-|
E:---0-0--4-5-7-----7---7---7-|----0-0-----------------7---|

G:----------------------------|---------------12--11--7--8-|
D:----------------------------|----------------------------|
A:-7------------7-----5---5---|-7---------7/10---9---5--6--|
E:---0-0--4-5-7-----7---7---7-|----0-0---------------------|

G:----------------------------|-----------7-7-----|
D:----------------------------|-------------------|
A:-7------------7-----5---5---|-7---------------5-|
E:---0-0--4-5-7-----7---7---7-|----0-0--------7---|

G:----------------------------|------------|
D:----------------------------|------------|
A:-7------------7-----5---5---|-7-7--------|
E:---0-0--4-5-7-----7---7---7-|------------|

Chorus

G:---------------------------|-----------------------------|
D:-77--------7------44-55-77-|-77--------7-----------------|
A:----9--7-9----5-5----------|----9--7-9----5-5--33-22-00--|
E:---------------------------|-----------------------------|

G:---------------------------|----------------|
D:-77--------7------44-55-77-| ---------------|
A:----9--7-9----5-5----------|----5-----6-----| 
E:---------------------------|-77---7---------|

Solo

G:--------------------------|--------7-77-7-777-|
D:--------------------------|-------------------|
A:-7-----------7----5---5---|-7-----------------|
E:---0-0-4-5-7----7---7---7-|----0-0------------|

G:--------------------------|--------18-19-18-19|
D:--------------------------|-------------------|
A:-7-----------7----5---5---|-7-----------------|
E:---0-0-4-5-7----7---7---7-|----0-0------------|

G:--------------------------|-------------4---6-|
D:--------------------------|------------5-5-7-7|
A:-7-----------7----5---5---|-7--------7--------|
E:---0-0-4-5-7----7---7---7-|----0-0------------|

G:--------------------------|--9--11--12-11-9--7--6--7|
D:--------------------------|-------------------------|
A:-7-----------7----5---5---|-7--9--10--9--7--5--4--5-|
E:---0-0-4-5-7----7---7---7-|-------------------------|

G:----------------------------|--------------------7-7-----|
D:----------------------------|----------------------------|
A:-7------------7-----5---5---|-7------------------------5-|
E:---0-0--4-5-7-----7---7---7-|----0-0-----------------7---|

G:----------------------------|---------------12--11--7--8-|
D:----------------------------|----------------------------|
A:-7------------7-----5---5---|-7---------7/10---9---5--6--|
E:---0-0--4-5-7-----7---7---7-|----0-0---------------------|

G:----------------------------|--------------------7-7-----|
D:----------------------------|----------------------------|
A:-7------------7-----5---5---|-7------------------------5-|
E:---0-0--4-5-7-----7---7---7-|----0-0-----------------7---|

G:----------------------------|---------------12--11--7--8-|
D:----------------------------|----------------------------|
A:-7------------7-----5---5---|-7---------7/10---9---5--6--|
E:---0-0--4-5-7-----7---7---7-|----0-0---------------------|

Fill

G:-----12-11-7-8-|
D:---------------|
A:-7/10--9--5-6--|
E:---------------|

Verse

G:----------------------------|-----------7-7-----|
D:----------------------------|-------------------|
A:-7------------7-----5---5---|-7---------------5-|
E:---0-0--4-5-7-----7---7---7-|----0-0--------7---|

G:----------------------------|------------|
D:----------------------------|------------|
A:-7------------7-----5---5---|-7-7--------|
E:---0-0--4-5-7-----7---7---7-|------------|


Chorus

G:---------------------------|-----------------------------|
D:-77--------7------44-55-77-|-77--------7-----------------|
A:----9--7-9----5-5----------|----9--7-9----5-5--33-22-00--|
E:---------------------------|-----------------------------|

G:---------------------------|------------------|
D:-77--------7------44-55-77-| -----------------|
A:----9--7-9----5-5----------|----5-----6--7----|
E:---------------------------|-77---7-----------|
            
Hard to play? Try these video lessons and learn fast. | Correct




comments powered by Disqus
↑ Back to top | Tablatures and chords are parodies/interpretations of the original songs. You may use it for private study, scholarship, research or language learning purposes only