>
 >
Monkey Man 4

Monkey Man 4 Bass Tabs

Specials - Monkey Man 4 chords, tabs, tablatures, lyrics

Guitar lessons | Add/correct | Request | Top 50 tabs Artists:  A B C D E F G H I J K L M N O P Q R S T U V W X Y Z 0-9

Monkey Man 4 Bass Tabs – Specials

CD, Sheet music, Poster

Do you like Monkey Man 4? Share with your friends now
Bass TabsBass Tabs v2Bass Tabs v3Bass Tabs v4Bass Tabs v5ChordsTabsUkulele
-------------------------------------------------------------------------------
                             The Specials - Monkey Man
-------------------------------------------------------------------------------

Tuning:Standard

Intro
G|-----------------------------------|-------5---------7---------------------|
D|-------5---------5---------5---5---|-----5---5-----7---7-------5---5-------|
A|-----5---5-----5---5-----5---5-----|--3---------5------------5---5---------|
E|--3---------3---------3------------|----------------------3----------------|

G|-----------------------------------|---------------------------------------|
D|-------5---------5---------5---5---|---------------------------------------|
A|-----5---5-----5---5-----5---5-----|--3-3-3-3--5--5--5---------------------|
E|--3---------3---------3------------|-------------------3--3----------------|

Main Riff
G|---------------------------------------------------------------------------|
D|-----2--0-----2----2--0-----------2----------------------------------------|
A|--------------------------0-2-3-5---5-3-2----------------------------------|
E|--3-------------3----------------------------------------------------------|





Comments


Popular Specials tabs & chords
Nite Klub 1 Bass Tabs
A Message To You Rudy 1 Chords
Blank Expression Chords
Concrete Jungle 1 Chords
Gangsters Chords
Nelson Mandela Chords
Too Much Too Young Chords
Do The Dog Ukulele
Hey Little Rich Girl Ukulele
Stereotype Ukulele


Song lyrics



↑ Back to top | Tablatures and chords are parodies/interpretations of the original songs. You may use it for private study, scholarship, research or language learning purposes only
© 2014 AZChords.com Contact us | Privacy policy | DMCA | Add/correct tabs | Request tabs | Top 50 tabs