>
 >
Gangsters

Gangsters Bass Tabs

Specials - Gangsters chords, tabs, tablatures, lyrics

Guitar lessons | Add/correct | Request | Top 50 tabs Artists:  A B C D E F G H I J K L M N O P Q R S T U V W X Y Z 0-9

Gangsters Bass Tabs – Specials

CD, Sheet music, Poster

Do you like Gangsters? Share with your friends now
Bass TabsBass Tabs v2ChordsUkulele
-------------------------------------------------------------------------
GANGSTERS - The Specials
-------------------------------------------------------------------------


Tuning: Standard (GDAE)


Intro
|-----------------|-----------------|-----------------|-----------------|
|-----------------|-----------------|-----------------|-----------------|
|-----------------|-----------------|-----------------|-----------------|
|-5---3---0---3---|-55-53-3-0---3---|-5---3---0---3---|-55-53-3-0---3---|
  ^   ^   ^   ^     ^   ^   ^   ^     ^   ^   ^   ^     ^   ^   ^   ^

Verse 1
|-----------------|-----------------|-----------------|-----------------|
|---------2-------|---------1-------|-----2-2-2-2-2-2-|-----------------|
|-0---3-------3---|-----3-------3---|-0---------------|-----------------|
|-----------------|-4---------------|-----------------|-----------------|
  ^   ^   ^   ^     ^   ^   ^   ^     ^   ^   ^   ^     ^   ^   ^   ^

|-----------------|-----------------|-----------------|-----------------|
|---------2-------|---------1-------|---------2-------|-----2-2-2-2-2-2-|
|-0---3-------3---|-----3-------3---|-0---3-------3---|-0---------------|
|-----------------|-4---------------|-----------------|-----------------|
  ^   ^   ^   ^     ^   ^   ^   ^     ^   ^   ^   ^     ^   ^   ^   ^

|-----------------|-----------------|-----------------|-----------------|
|---------2-------|---------1-------|-----2-2-2-2-2-2-|-----------------|
|-0---3-------3---|-----3-------3---|-0---------------|-----------------|
|-----------------|-4---------------|-----------------|-----------------|
  ^   ^   ^   ^     ^   ^   ^   ^     ^   ^   ^   ^     ^   ^   ^   ^

Break
|-----------------|-----------------|-----------------|---9---7---5---4-|
|-----------------|-----------------|-----2-2-2-2-2-2-|-----------------|
|-5---------------|-3---------------|-----------------|-7---5---3---2---|
|-----5-5-5-5-5-5-|-----3-3-3-3-3-3-|-0---------------|-----------------|
  ^   ^   ^   ^     ^   ^   ^   ^     ^   ^   ^   ^     ^   ^   ^   ^

Verse 2
|-----------------|-----------------|-----------------|-----------------|
|---------2-------|---------1-------|---------2-------|---------2-------|
|-0---3-------3---|-----3-------3---|-0---3-------3---|-0---3-------3---|
|-----------------|-4---------------|-----------------|-----------------|
  ^   ^   ^   ^     ^   ^   ^   ^     ^   ^   ^   ^     ^   ^   ^   ^

|-----------------|-----------------|-----------------|-----------------|
|---------2-------|---------1-------|---------2-------|-----2-2-2-2-2-2-|
|-0---3-------3---|-----3-------3---|-0---3-------3---|-0---------------|
|-----------------|-4---------------|-----------------|-----------------|
  ^   ^   ^   ^     ^   ^   ^   ^     ^   ^   ^   ^     ^   ^   ^   ^

|-----------------|-----------------|-----------------|-----------------|
|---------2-------|---------1-------|---------2-------|---------2-------|
|-0---3-------3---|-----3-------3---|-0---3-------3---|-0---3-------3---|
|-----------------|-4---------------|-----------------|-----------------|

Break
|-----------------|-----------------|-----------------|---9---7---5---4-|
|-----------------|-----------------|-----2-2-2-2-2-2-|-----------------|
|-3---------------|-----5-5-5-5-5-5-|-----------------|-7---5---3---2---|
|-----3-3-3-3-3-3-|-3---------------|-0---------------|-----------------|
  ^   ^   ^   ^     ^   ^   ^   ^     ^   ^   ^   ^     ^   ^   ^   ^

Then |ntro aga|n (4 bars)

Solo
|-----------------|---9---7---5---4-|-----------------|---9---7---5---4-|
|-----------------|-----------------|-----------------|-----------------|
|-0---3-------3---|-7---5---3---2---|-0---3-------3---|-7---5---3---2---|
|---------4-------|-----------------|---------4-------|-----------------|
  ^   ^   ^   ^     ^   ^   ^   ^     ^   ^   ^   ^     ^   ^   ^   ^

|-----------------|---9---7---5---4-|-----------------|-----------------|
|-----------------|-----------------|-----------------|-----------------|
|-0---3-------3---|-7---5---3---2---|-5---------------|-3---------------|
|---------4-------|-----------------|-----5-5-5-5-5-5-|-----3-3-3-3-3-3-|
  ^   ^   ^   ^     ^   ^   ^   ^     ^   ^   ^   ^     ^   ^   ^   ^

|-----------------|---9---7---5---4-|
|-----2-2-2-2-2-2-|-----------------|
|-----------------|-7---5---3---2---|
|-0---------------|-----------------|
 ^   ^   ^   ^     ^   ^   ^   ^

Verse 3
|-----------------|-----------------|-----------------|-----------------|
|---------2-------|---------1-------|---------2-------|-----2-2-2-2-2-2-|
|-0---3-------3---|-----3-------3---|-0---3-------3---|-0---------------|
|-----------------|-4---------------|-----------------|-----------------|
  ^   ^   ^   ^     ^   ^   ^   ^     ^   ^   ^   ^     ^   ^   ^   ^

|-----------------|-----------------|-----------------|-----------------|
|---------2-------|---------1-------|---------2-------|-----2-2-2-2-2-2-|
|-0---3-------3---|-----3-------3---|-0---3-------3---|-0---------------|
|-----------------|-4---------------|-----------------|-----------------|
  ^   ^   ^   ^     ^   ^   ^   ^     ^   ^   ^   ^     ^   ^   ^   ^

|-----------------|-----------------|-----------------|-----------------|
|---------2-------|---------1-------|---------2-------|-----2-2-2-2-2-2-|
|-0---3-------3---|-----3-------3---|-0---3-------3---|-0---------------|
|-----------------|-4---------------|-----------------|-----------------|
  ^   ^   ^   ^     ^   ^   ^   ^     ^   ^   ^   ^     ^   ^   ^   ^

Break
|-----------------|-----------------|-----------------|---9---7---5---4-|
|-----------------|-----------------|-----2-2-2-2-2-2-|-----------------|
|-3---------------|-----5-5-5-5-5-5-|-----------------|-7---5---3---2---|
|-----3-3-3-3-3-3-|-3---------------|-0---------------|-----------------|
  ^   ^   ^   ^     ^   ^   ^   ^     ^   ^   ^   ^     ^   ^   ^   ^

|-----------------|-----------------|-----------------|-----------------|
|-----------------|-----------------|-----------------|-----------------|
|-----------------|-----------------|-----------------|-----------------|
|-5-------4-------|-5---------------|-5-------4-------|-5---------------|
  ^   ^   ^   ^     ^   ^   ^   ^     ^   ^   ^   ^     ^   ^   ^   ^

|-----------------|-----------------|-----------------|-----------------|
|-----------------|-----------------|-----------------|-----------------|
|-----------------|-----------------|-3---------------|-----5-5-5-5-5-5-|
|-5-------4-------|-5---------------|-----3-3-3-3-3-3-|-3---------------|
  ^   ^   ^   ^     ^   ^   ^   ^     ^   ^   ^   ^     ^   ^   ^   ^

|-----------------|---9---7---5---4-|
|-----2-2-2-2-2-2-|-----------------|
|-----------------|-7---5---3---2---|
|-0---------------|-----------------|
 ^   ^   ^   ^     ^   ^   ^   ^

Then repeat Intro to fade





Comments


Popular Specials tabs & chords
Ghost Town Bass Tabs
A Message To You Rudy 1 Chords
Pressure Drop Chords
A Message To You Rudi Tabs
Friday Nite Saturday Morning Tabs
Ghost Town Tabs
Rudi, A Message To You 1 Tabs
Too Hot Tabs
Enjoy Yourself Ukulele
Pressure Drop Ukulele


Song lyrics



↑ Back to top | Tablatures and chords are parodies/interpretations of the original songs. You may use it for private study, scholarship, research or language learning purposes only
© 2014 AZChords.com Contact us | Privacy policy | DMCA | Add/correct tabs | Request tabs | Top 50 tabs