» » »

Do The Dog Bass tabs (ver.2)

Artists:  A B C D E F G H I J K L M N O P Q R S T U V W X Y Z # 

Do The Dog Bass tabs (ver.2)

Specials
Rating:
0/5 (0 votes)

Hard to play? Try these video lessons and learn fast.
                Band : The Specials 
Title : Do The Dog
Tuning : Standard ( E A D G)
Difficulty : Novice



Have fun, this song is really easy. Pay attention to the rhytm :) 


G|--------------------------------------------------|
D|------------------------------------8h9-----------|
A|-------------10-10-10-8-8-8-8---------------------|
E|-10-10-10---------------------10-10---------------|x9

G|------------------------------------8h9-----------|
D|-------------10-10-10-8-8-8-8---------------------|
A|------------------------------10-10---------------|
E|-10-10-10-----------------------------------------|

G|--------------------------------------------------|
D|------------------------------------8h9-----------|
A|-10-10-10----10-10-10-8-8-8-8---------------------|
E|------------------------------10-10---------------|

G|--------------------------------------------------|
D|-------------12-12-12-12-12-12-12-12--10-10-------|
A|--------------------------------------------------|
E|-10-10-10-----------------------------------------|

G|--------------------------------------------------|
D-------------------------------------8h9-----------|
A|-------------10-10-10-8-8-8-8---------------------|
E|-10-10-10---------------------10-10---------------|x4

G|------------------------------------8h9-----------|
D|-------------10-10-10-8-8-8-8---------------------|
A|------------------------------10-10---------------|
E|-10-10-10-----------------------------------------|

G|-------------------------------------8h9----------|
D|-------------10-10-10-8-8-8-8---------------------|
A|-10-10-10---------------------10-10---------------|
E|--------------------------------------------------|

G|--------------------------------------------------|
D|-------------------------------------8h9----------|
A|-10-10-10----10-10-10-8-8-8-8---------------------|
E|------------------------------10-10---------------|
	
G|--------------------------------------------------|
D|-------------------------------------8h9----------|
A|-------------10-10-10-8-8-8-8---------------------|
E|-10-10-10---------------------10-10---------------|

G|--------------------------------------------------|
D|-------------12-12-12-12-12-12-12-12--10-10-------|
A|--------------------------------------------------|
E|-10-10-10-----------------------------------------|

G|--------------------------------------------------|
D|------------------------------------8h9-----------|
A|-------------10-10-10-8-8-8-8---------------------|
E|-10-10-10---------------------10-10---------------|x9

G|------------------------------------8h9-----------|
D|-------------10-10-10-8-8-8-8---------------------|
A|------------------------------10-10---------------|
E|-10-10-10-----------------------------------------|

G|--------------------------------------------------|
D|------------------------------------8h9-----------|
A|-10-10-10----10-10-10-8-8-8-8---------------------|
E|------------------------------10-10---------------|

G|----------|---------------------------------------|
D|----------|---12-12-12-12-12-12-12-12--10-10------|
A|----------|---------------------------------------|
E|-10-10-10-|---------------------------------------|x3
            
Hard to play? Try these video lessons and learn fast. | Correct




comments powered by Disqus
↑ Back to top | Tablatures and chords are parodies/interpretations of the original songs. You may use it for private study, scholarship, research or language learning purposes only