» » »

Specials, Concrete Jungle Bass tabs (ver.1)

Artists:  A B C D E F G H I J K L M N O P Q R S T U V W X Y Z # 

Concrete Jungle Bass tabs (ver.1)

Specials Tabs
 Rating:
4/5 (4 votes)
Concrete Jungle lessons Tabs too difficult? Try these video lessons and learn fast
                
Verse

G-------------------14--14/16--------------------------14--14/16---------|
D-14--12-14-12-14---14--14/16---14h17----12-14-12-14---14--14/16---14h17-|
A------------------------------------------------------------------------|
E--------------------------------------0---------------------------------|

G-------------------14--14/16--------------------------14-14-14-16-16-16-|
D-----12-14-12-14---14--14/16---14h17----12-14-12-14---14-14-14-16-16-16-|
A------------------------------------------------------------------------|
E---0----------------------------------0---------------------------------|

G------------------------------------------------------------|
D----------------2-5-2----4-4-----------------2-5-2-----4--7-|
A---2-2-2-2-2--3--------5---------2-2-2-2-2--3-------5-------|
E-0-----------------------------0----------------------------|

G---------------------------------------------------------7--|
D----------------2-5-2----4-4-----------------2-5-2------7-7-|
A---2-2-2-2-2--3--------5---------2-2-2-2-2--3--------5------|
E-0-----------------------------0----------------------------|


Chorus

G------------------------------------------------------------------|
D------------------------------------------------------------------|
A---0-3-0-2-0---2-3-------5-----2----0-3-0-2-0---2-3-------5-----2-|
E-1-----------3-----0-2-3---1-3----1-----------3-----0-2-3---1-3---|

G---------------------------------------|
D---------------------------------------|
A---0-3-0-2-0---2-3-------5-5-5---5-5---|
E-1-----------3-----0-2-3---------------|


Verse

G--9h12---------------------------------------------------------
D--------------------2-5-2---4-7\-------------------2-5-2---4-4-
A-------7-----0-2--3-------5----------2-2-2-0-----3-------5-----
E------------------------------------0--------3-2---------------

G-------------------------------------------------5--------7----|
D----------------2-5-2----4-4-------------------5---5----7---7--|
A---2-2-2-2-2--3--------5----------2-2-2-2-2--3--------5--------|
E-0------------------------------0------------------------------|

G------------------------------------------------------------|
D----------------2-5-2----4-4-----------------2-5-2----4-7\--|
A---2-2-2-2-2--3--------5---------2-2-2-2-2--3-------5-------|
E-0-----------------------------0----------------------------|

G----------------------------------------------------|
D----------------2-5-2----4-4------------------------|
A---2-2-2-2-2--3--------5---------2-2-2-2-2--3-3--5--|
E-0-----------------------------0--------------------|


Chorus

G----------------------------------------------------------------------4-7-|
D--------------------------------------------------------------4-4-7-7-----|
A---0-3-0-2-0---2-3-------5-----2----0-3-0-2-0---2-3-------5-5-------------|
E-1-----------3-----0-2-3---1-3----1-----------3-----0-2-3-----------------|

G----------------------------------------|
D----------------------------------------|
A---0-3-0-2-0---2-3-------5-5-5---5-5----|
E-1-----------3-----0-2-3----------------|


Bridge

G---9---4---6---9--5-5--7-7-|----------|
D---------------------------|--14h17---|
A-7---2---4---7---3----5----|----------|
E---------------------------|--------0-|


Verse

G-----------------14--14/16--------------------------14--14/16---------|
D---12-14-12-14---14--14/16---14h17----12-14-12-14---14--14/16---14h17-|
A----------------------------------------------------------------------|
E------------------------------------0---------------------------------|

G-------------------14--14/16--------------------------14-14-14-16-16-16-|
D-----12-14-12-14---14--14/16---14h17----12-14-12-14---14-14-14-16-16-16-|
A------------------------------------------------------------------------|
E---0----------------------------------0---------------------------------|

G------------------------------------------------------------|
D----------------2-5-2----4-4-----------------2-5-2----4-4---|
A---2-2-2-2-2--3--------5---------2-2-2-2-2--3-------5-------|
E-0-----------------------------0----------------------------|

G-----------------------------------------------------7---|
D----------------2-5-2----4-4------------------------7-7--|
A---2-2-2-2-2--3--------5---------2-2-2-2-2--3-3---5------|
E-0-----------------------------0-------------------------|


Chorus

G------------------------------------------------------------------|
D------------------------------------------------------------------|
A---0-3-0-2-0---2-3-------5-----2----0-3-0-2-0---2-3-------5-----2-|
E-1-----------3-----0-2-3---1-3----1-----------3-----0-2-3---1-3---|

G----------------------------------------|
D----------------------------------------|
A---0-3-0-2-0---2-3-------5-5-5---5-5----|
E-1-----------3-----0-2-3----------------|


By Alister.
            
Submit corrections

comments powered by Disqus
↑ Back to top | Specials Bass for Concrete Jungle. Lyrics for acoustic guitar and electric guitar. Tablatures and chords are parodies/interpretations of the original songs. You may use it for private study, scholarship, research or language learning purposes only