» » »

Specials, A Message To You, Rudy Bass tabs (ver.1)

Artists:  A B C D E F G H I J K L M N O P Q R S T U V W X Y Z # 

A Message To You, Rudy Bass tabs (ver.1)

Specials Tabs
 Rating:
4/5 (4 votes)
A Message To You, Rudy lessons Tabs too difficult? Try these video lessons and learn fast
                intro:
G|-------------------------------|
D|---2---------------2-----------|
A|-3-----3-------2-3-----3-----2-|
E|---------1---3-----------1-3---|


rest of song:
G|-------------------------------|
D|---2---------------------------|
A|-3-----3-----2-333-----------2-|
E|---------1-13--------3-1---13--|

This is the whole song EXACTLY as it appears on the album - The Specials.
            
Submit corrections

comments powered by Disqus
↑ Back to top | Specials Bass for A Message To You, Rudy. Lyrics for acoustic guitar and electric guitar. Tablatures and chords are parodies/interpretations of the original songs. You may use it for private study, scholarship, research or language learning purposes only