>
 >
True 1

True 1 Guitar Tabs

Spandau Ballet - True 1 chords, tabs, tablatures, lyrics

Guitar lessons | Add/correct | Request | Top 50 tabs Artists:  A B C D E F G H I J K L M N O P Q R S T U V W X Y Z 0-9

True 1 Guitar Tabs – Spandau Ballet

CD, Sheet music, Poster

Do you like True 1? Share with your friends now
Bass TabsChordsChords v2Chords v3TabsTabs v2Ukulele
True - Spandau Ballet - BASIC ARRANGEMENT played in the key of G

E|--------10--------10------------|------10------------10----------|
B|-------- 7---------- 7-------- 7|------ 7------------ 7-------- 8|
G| 7------ 7---------- 7-------- 7|------ 7------------ 7-------- 9|
D| 9---------------------------- 9|------------------------------ 9|
A|10------------------------------|--------------------------------|
E|------------------------------ 0|--------------------------------|

E|--------10----------10----------|--------14----------14----------|
B|-------- 8---------- 8----------|--------15----------15----------|
G|-------- 9---------- 9----------|--------14----------14----------|
D|--------------------------------|--------------------------------|
A|------------------------------14|--------------------------------|
E| 8------------------------------|--------------------------------|

E|---------------------------- 2--|--------------------------------|
B|------ 0------ 1-- 3-------- 0--|---------- 3------------------ 3|
G|------ 0------ 0---- 0------ 0--|------ 0-- 0---------- 0-- 0-- 0|
D|---- 0-------- 0---- 0----------|------ 0-- 0-------- 0-------- 2|
A|--------------------------------|--------------------------------|
E| 3-------- 3------------ 3------| 0-------------- 0--------------|

E|--------------------------------|--------------------------------|
B|---- 3------------------------ 3|---- 3--------------------------|
G|---- 0---- 0------ 0-------- 0 2|---- 2------ 0---------- 2------|
D|---------- 2---------- 2------ 0|---- 0------ 0------ 0------ 0--|
A| 3-------- 3--------------------| 2---------- 2------------------|
E|--------------------------------|--------------------------------|

E|---------------------------- 2--|--------------------------------|
B|------ 0------ 1-- 3-------- 0--|---------- 3------------------ 3|
G|------ 0------ 0---- 0------ 0--|------ 0-- 0---------- 0-- 0-- 0|
D|---- 0-------- 0---- 0----------|------ 0-- 0-------- 0-------- 2|
A|--------------------------------|--------------------------------|
E| 3-------- 3------------ 3------| 0-------------- 0--------------|

E|--------------------------------|--------------------------------|
B|---- 3------------------------ 3|---- 3--------------------------|
G|---- 0---- 0------ 0-------- 0 2|---- 2------ 0---------- 2------|
D|---------- 2---------- 2------ 0|---- 0------ 0------ 0------ 0--|
A| 3-------- 3--------------------| 2---------- 2------------------|
E|--------------------------------|--------------------------------|

E| 0------------------------------|--------------------------------|
B| 1---------- 3-- 1-- 0----------|--------------------------------|
G| 0------ 0-- 0-- 0------ 2-- 0--| 0------------------------------|
D|---- 2------ 0-- 2--------------| 3------------------------------|
A| 0---------- 2-- 3--------------|--------------------------------|
E|--------------------------------| 1------------------------------|

E|--------------------------------|--------------------------------|
B|--------------------------------|------ 0-- 0------------ 0---- 0|
G|--------------------------------|------ 0-- 0------------ 0---- 2|
D|--------------------------------|---- 0---- 0-------------- 0-- 0|
A|--------------------------------|--------------------------------|
E|--------------------------------| 3------------------ 3----------|

E|--------------------------------|--------------------------------|
B|---- 0------ 0-------------- 0--| 1-- 0--------------------------|
G|---- 2------ 2---------- 2------| 0------ 2-- 0---- 0------------|
D|---- 0------ 0------ 0-------- 2|-------- 2-- 2---- 2-------- 2--|
A| 2---------- 2---------------- 3|---------------------- 3------ 6|
E|--------------------------------|--------------------------------|

E|--------------------------------|------------------------ 0-- 2--|
B|---------------------------- 0--|------ 0------ 0---- 3------ 0--|
G| 5-------- 4---- 0---------- 0--|------ 0------ 0---- 0------ 2--|
D| 7---------- 7------ 7------ 0--|------ 0------ 0---- 0----------|
A|--------------------------------|--------------------------------|
E|--------------------------------| 3---------- 3------------------|

E|--------------------------------|--------------------------------|
B|---- 0---- 3-- 0-- 3------------|---------------------------- 3--|
G|---- 2---- 2-- 2-- 2------ 0----|---- 0---------- 0-- 2-- 0-- 0--|
D|---- 0---- 0-- 0-- 0------ 2----|---- 2---------- 2-- 2-- 2-- 0--|
A| 2-------- 2------------------ 3|------------ 3------------------|
E|--------------------------------|---------------------------- 0--|

E|------------------ 0------------|--------------------------------|
B|-------------- 3-- 3-- 3--------|---------------------------- 3--|
G|-------------- 0-- 0-- 0-- 0----|------ 0-------- 0-- 2-- 0-- 0--|
D|-------------- 0------ 0-- 2----|---- 2------ 2-- 2-- 2-- 2-- 0--|
A|-------------------------- 3----|---------------- 3--------------|
E|---------- 0--------------------|---------------------------- 3--|

E|--------------------------------|-- 0-- 0---- 0 0----------------|
B|--------------------------------|-- 1-- 1---- 1-- 3 1-- 0-- 0----|
G|-------- 0-------------- 2------|-- 0-- 0---- 0-- 0 0------------|
D|---- 0------ 0------ 0------ 0--|---------------- 2 2------------|
A|--------------------------------| 3------------ 3----------------|
E|---------------- 2--------------|------------------------------ 3|

E|--------------------------------|--------------------------------|
B|--------------------------------|---- 1 1-- 1-- 1-- 0-------- 0--|
G|-------- 0----------------------|---- 0-- 0-- 0 0-------- 2-- 0--|
D|-- 0------ 0-------- 0------ 0--|---- 2-- 2-- 2 2------------ 0--|
A|------------------------ 2------| 3------------ 3----------------|
E|---------------- 3--------------|--------------------------------|

E|--------------------------------|-- 0---- 0-- 0 3---- 0-------- 0|
B|--------------------------------|---- 1-- 1-- 1 1---- 1---- 3-- 0|
G|-------- 0----------------------|---- 0-- 0-- 0-- 0-- 0---- 0-- 0|
D|---- 0------ 0------ 0------ 0--|-------------------------- 2----|
A|------------------------ 2------| 3-------------- 3--------------|
E| 3-------------- 3--------------|------------------------------ 3|

E|--------------------------------|---------------------- 3--------|
B|---- 3------ 0------------------| 1 0-------- 1 0------ 1--------|
G|---- 0---------------- 0-- 0-- 0|-------- 0-- 0---- 0-- 0--------|
D|---- 0-- 0-------- 0---------- 2|---------- 0--------------------|
A|------------------------------ 3|---------- 2--------------------|
E|--------------------------------|---------------------- 1--------|

E|--------------------------------|---------------------------- 2--|
B|--------------------------------|------ 0------ 1-- 3-------- 0--|
G|--------------------------------|------ 0------ 0---- 0------ 0--|
D|--------------------------------|---- 0-------- 0---- 0----------|
A|--------------------------------|--------------------------------|
E|--------------------------------| 3-------- 3------------ 3------|

E|--------------------------------|--------------------------------|
B|---------- 3------------------ 3|---- 3------------------------ 3|
G|------ 0-- 0---------- 0-- 0-- 0|---- 0---- 0------ 0-------- 0 2|
D|------ 0-- 0-------- 0-------- 2|---------- 2---------- 2------ 0|
A|--------------------------------| 3-------- 3--------------------|
E| 0-------------- 0--------------|--------------------------------|

E|--------------------------------|---------------------------- 2--|
B|---- 3--------------------------|------ 0------ 1-- 3-------- 0--|
G|---- 2------ 0---------- 2------|------ 0------ 0---- 0------ 0--|
D|---- 0------ 0------ 0------ 0--|---- 0-------- 0---- 0----------|
A| 2---------- 2------------------|--------------------------------|
E|--------------------------------| 3-------- 3------------ 3------|

E|--------------------------------|--------------------------------|
B|---------- 3------------------ 3|---- 3------------------------ 3|
G|------ 0-- 0---------- 0-- 0-- 0|---- 0---- 0------ 0-------- 0 2|
D|------ 0-- 0-------- 0-------- 2|---------- 2---------- 2------ 0|
A|--------------------------------| 3-------- 3--------------------|
E| 0-------------- 0--------------|--------------------------------|

E|--------------------------------| 0------------------------------|
B|---- 3--------------------------| 1-------- 3-- 1-- 0------------|
G|---- 2------ 0---------- 2------| 0------ 0 0-- 0------ 2-- 0-- 2|
D|---- 0------ 0------ 0------ 0--|------ 2-- 0-- 2-------------- 4|
A| 2---------- 2------------------| 0-------- 2-- 3----------------|
E|--------------------------------|------------------------------ 0|

E|--------------------------------| 0------------------------------|
B|---------------------------- 0--| 1-------- 3-- 1-- 0------------|
G|---- 2---- 4---------- 4--------| 0------ 0 0-- 0------ 2-- 0-- 2|
D|---- 4---- 5------ 5------------|------ 2-- 0-- 2-------------- 4|
A|--------------------------------| 0-------- 2-- 3----------------|
E|------------ 0------------------|------------------------------ 0|

E|--------------------------------| 0------------------------------|
B|---------------------------- 0--| 1---------- 3-- 1-- 0----------|
G|---- 2---- 4---------- 4--------| 0------ 0-- 0-- 0------ 2-- 0--|
D|---- 4---- 5------ 5------------|---- 2------ 0-- 2--------------|
A|--------------------------------| 0---------- 2-- 3--------------|
E|------------ 0------------------|--------------------------------|

E|--------------------------------|--------------------------------|
B|--------------------------------|--------------------------------|
G| 0------------------------------|--------------------------------|
D| 3------------------------------|--------------------------------|
A|--------------------------------|--------------------------------|
E| 1------------------------------|--------------------------------|

E|--------------------------------|--------------------------------|
B|-------------------- 0----------|-------------------- 0----------|
G|-------------- 0----------------|---------------- 0--------------|
D|-- 0 0---- 2--------------------|-- 0 0---- 2--------------------|
A|--------------------------------|--------------------------------|
E| 3---------- 3-------------- 3--| 0-------- 0---------------- 0--|

E|-------------------------- 3-- 3|-- 2 2---- 0-------------- 0----|
B|------------------ 0------ 0-- 0|-- 0 0---- 0------ 3------ 0----|
G|-------------- 0---------- 0-- 2|-- 2 2---- 2------ 2------ 2----|
D|-- 0 0---- 2--------------------|------------------ 0------------|
A| 3-------- 3-------------- 3-- 2|------------ 2------------ 2----|
E|--------------------------------|--------------------------------|

E|--------------------------------|--------------------------------|
B|-------------------- 0----------|-------------------- 0----------|
G|-------------- 0----------------|---------------- 0--------------|
D|-- 0 0---- 2--------------------|-- 0 0---- 2--------------------|
A|--------------------------------|--------------------------------|
E| 3---------- 3-------------- 3--| 0-------- 0---------------- 0--|

E|-------------------------- 3-- 3|-- 2 2---- 0-------------- 0----|
B|------------------ 0------ 0-- 0|-- 0 0---- 0------ 3------ 0----|
G|-------------- 0---------- 0-- 2|-- 2 2---- 2------ 2------ 2-- 7|
D|-- 0 0---- 2--------------------|------------------ 0---------- 9|
A| 3-------- 3-------------- 3-- 2|------------ 2------------ 2----|
E|--------------------------------|--------------------------------|

E|------10------------10----------|------10------------10----------|
B|------ 7------------ 7-------- 7|------ 7------------ 7-------- 8|
G|------ 7------------ 7-------- 7|------ 7------------ 7-------- 9|
D|------------------------------ 9|------------------------------ 9|
A|10------------------------------|--------------------------------|
E|------------------------------ 0|--------------------------------|

E|--------10----------10----------|--------14----------14----------|
B|-------- 8---------- 8----------|--------15----------15----------|
G|-------- 9---------- 9----------|--------14----------14----------|
D|--------------------------------|--------------------------------|
A|------------------------------14|--------------------------------|
E| 8------------------------------|------------------------------ 3|

E|--------------------------------|--------------------------------|
B| 3------------------------------|--------------------------------|
G|--------------------------------|--------------------------------|
D| 4------------------------------|--------------------------------|
A|--------------------------------|--------------------------------|
E|--------------------------------|--------------------------------|

E|--------------------------------|--------------------------------|
B|--------------------------------|--------------------------------|
G|--------------------------------|--------------------------------|
D|--------------------------------|--------------------------------|
A|--------------------------------|--------------------------------|
E|--------------------------------|--------------------------------|





Comments


Popular Spandau Ballet tabs & chords
True Bass Tabs
Gold 2 Chords
I'll Fly For You Chords
Only When You Leave Chords
Through The Barricades 1 Chords
True Chords
True 2 Chords
Through The Barricades Tabs
True Tabs
True Ukulele


Song lyrics



↑ Back to top | Tablatures and chords are parodies/interpretations of the original songs. You may use it for private study, scholarship, research or language learning purposes only
© 2014 AZChords.com Contact us | Privacy policy | DMCA | Add/correct tabs | Request tabs | Top 50 tabs