» » »

Spandau Ballet, True Bass tabs (ver.1)

Artists:  A B C D E F G H I J K L M N O P Q R S T U V W X Y Z # 

True Bass tabs (ver.1)

Spandau Ballet Tabs
 Rating:
4/5 (4 votes)
True lessons Tabs too difficult? Try these video lessons and learn fast
1
                -------------------------------------------------------------------
                       TRUE – Spandau Ballet
-------------------------------------------------------------------



Tuning:  E A D G

INTRO
|----------------|
|----2-----------|
|--------3-3-32--|
|3---------------|

CHORUS                   4th time to Coda2     3rd time to Coda1
||-------------------------------------4--||-----------|
||:-------55----2---22---20---5------4---:||--------3--|
||:(2)---5----5----2----3--3-----32------:||20--23-----|
||----3--------3--------------------------||-----------|

                           ------------------   --------
VERSE                      1.                   2.
||---------------44-------|-55--------8/108---||-5------||
||:----55-------4----4----|5-----01--5-----8-:||5---2--:||
||:---5----5-2--------23--|-----3------------:||--35---:||
||-3--------3-------------|-------------------||--------||

                                                         1.        2.
|---------------------------------||-------------------||-5-4---| |-45-4---|
|20--------5-54-4\3---------5--55-||:--------------55-:||5----5-| |7-----5-|
|--3--23-35--------3--33--3---5---||:5-3-3-32-0---5---:||-------| |--------|
|--------------------3---3-3------||--3---3----3-3-----||-------| |--------|

RETURN TO CHORUS

Coda1           .  .               x7
|-------||------8-10-8------.-.------||
|3-3-33-||:---.-------------6-8-6---:||
|-------||:6--6.----------..------.-:||
|-------||-----6-------64-43------6--||
                                                    
|--------------------------------------------------------------45-4---|
|----55-5-----55-5-------------5-55----------------------5-55-7-----5-|
|---5----5---5----5--3-2-22-0---5--5\3-----0-2-3-2-22-0---5-----------|
|3-3------3-3------3----2----3-----------3--------2----3--------------|

RETURN TO CHORUS

Coda2
|---||---------11-9----------||---------|
|---||:-----2-9--9--9-75----:||---3-----|
|20-||:23--3------------750-:||23-------|
|---||-----------------------||---------|

                                                         Repeat to fade
||-----------------|----------------|----------------|-----------------||
||:5-5-55555-5-5-5-|2-2-22222-2-2-2-|----------------|--------------2-:||
||:----------------|----------------|3-3-33333-3-3-3-|2-2-22222-2-5---:||
||-----------------|----------------|----------------|-----------------||
            
Submit corrections

comments powered by Disqus
↑ Back to top | Spandau Ballet Bass for True. Lyrics for acoustic guitar and electric guitar. 1 Tablatures and chords are parodies/interpretations of the original songs. You may use it for private study, scholarship, research or language learning purposes only