» » »

Spandau Ballet, Through The Barricades Tabs (ver.2)

Artists:  A B C D E F G H I J K L M N O P Q R S T U V W X Y Z # 

Through The Barricades Tabs (ver.2)

Spandau Ballet Tabs
 Rating:
4/5 (5 votes)
Through The Barricades lessons Tabs too difficult? Try these video lessons and learn fast
1
                e ----------------|----------------|----------------|--------5^2-----| Intro
B ------3---------|----------------|-------3--------|------3-----3---|
G ----4-----------|------0---------|-----2----------|----2---------2-|
D --0-------------|----4-----------|---4------------|--4-------------|
A ----------------|--2-------------|2---------------|2---------------|
E 3---------------|0---------------|----------------|----------------|

e ----------------|----------------|--------8-------|--------8-------|
B ------3---------|----------------|------8---8---8-|------8---8---8-|
G ----0-----------|------0---------|----0-------0---|----0-------0---|
D --2-------------|----4-----------|--7-------------|--7-------------|
A 3---------------|--2-------------|8---------------|7---------------|
E ----------------|0---------------|----------------|----------------|

e --------8-------|2---------------|
B ------8---8---8-|3---------------|
G ----0-------0---|2---------------|
D --7-------------|0---------------|
A 6---------------|----------------|
E ----------------|----------------|

Mother doesn't know where love has gone
She says it must be youth that keeps this feeling strong
I see it in her face that's turned to ice
And when she smiles she shows the lines of sacrifice
And now I know what they're saying as our sun begins to fade
And we made our love on wasteland and through the barricades

         Mother..               ...gone...
e ----------------|----------------|----------------|--------5^2-----| Verse 1
B ------3-------3-|----------------|------3-------3-|------3-----3---|
G ----4-------4---|------0-------0-|----2-------2---|----2---------0-|
D --0-------0-----|----4-------4---|--4-------4-----|--4-------------|
A ----------------|--2-------2-----|2---------------|2---------------|
E 3---------------|0---------------|----------------|----------------|

        She says...                                ...strong
e ----------------|----------------|------3-------3-|------3---------|
B ------3-------3-|----------------|----1-------1---|----1---1-------|
G ----0-------0---|------0-------0-|--2-------2-----|--0-------0-----|
D --2-------2-----|----4-------4---|3---------------|------------2---|
A 3---------------|--2-------2-----|----------------|3---------------|
E ----------------|0---------------|----------------|----------------|

        I see...                   ...to ice...
e ----------------|----------------|----------------|--------5^2-----|
B ------3-------3-|----------------|------3-------3-|------3-----3---|
G ----4-------4---|------0-------0-|----2-------2---|----2---------0-|
D --0-------0-----|----4-------4---|--4-------4-----|--4-------------|
A ----------------|--2-------2-----|2---------------|2---------------|
E 3---------------|0---------------|----------------|----------------|

     ...and...                                ...sacrifice
e ----------------|----------------|----------------|------2-------2-|
B ------3-------3-|----------------|------3-------3-|----3---3---3---|
G ----0-------0---|------0-------0-|----0-------0---|--2-------2-----|
D --2-------2-----|----4-------4---|--2-------2-----|0---------------|
A 3---------------|--2-------2-----|3---------------|----------------|
E ----------------|0---------------|----------------|----------------|

     And now I...                           ...as our sun...
e ------2-------0-|------0---------|------0---------|------3-------3-| Chorus
B ----3-----------|----1---1-------|----3---3-------|----0-------0---|
G --2-------------|--0-------0-----|--0-------0---0-|--0-------0-----|
D 0---------------|------------2/4-|------------4---|----------------|
A --------2-0-----|3---------------|5---------------|----------------|
E ----------------|----------------|----------------|3-------2-------|

                          ...and we made...
e ------3---------|----------3-----|------0-------0-|--3-----3-----3-|
B ----0---0-------|--------0-------|----1---1-------|----1-----1-----|
G --0-------0---0-|------0---------|--0-------0-----|------0-----0---|
D ------------2---|----0-----------|------------2---|----------------|
A ----------------|0h2--------0h2p0|3---------------|0---------------|
E 0---------------|----------------|----------------|----------------|

...through the barricades
e ----3-----3-----|------2-3p2-----||----------------|----------------|
B 1-----1-----1---|----3-------3---||------3-------3-|------3-------3-|
G --0-----0-----0-|--2-----------2-||----4---4---4---|4---4---4---4---|
D ----------------|0---------------||--0-------0-----|--0-------0-----|
A ----------------|----------------||----------------|----------------|
E ----------------|----------------||3---------------|----------------|

Father made my history
He fought for what he thought would set us somehow free
They taught me what to say in school
I learned it half by heart but now that's torn in two
And now I know what they're saying in the music of the parade
And we made our love on wasteland and through the barricades

e ----------------|----------------|----------------|--------5^2-----| Verse 2
B ------3-------3-|----------------|------3-------3-|------3-----3---|
G ----4-------4---|------0-------0-|----2-------2---|----2---------0-|
D --0-------0-----|----4-------4---|--4-------4-----|--4-------------|
A ----------------|--2-------2-----|2---------------|2---------------|
E 3---------------|0---------------|----------------|----------------|

e ----------------|----------------|------3-------3-|------3---------|
B ------3-------3-|----------------|----1-------1---|----1---1-------|
G ----0-------0---|------0-------0-|--2-------2-----|--0-------0-----|
D --2-------2-----|----4-------4---|3---------------|------------2---|
A 3---------------|--2-------2-----|----------------|3---------------|
E ----------------|0---------------|----------------|----------------|

e ----------------|----------------|----------------|--------5^2-----|
B ------3-------3-|----------------|------3-------3-|------3-----3---|
G ----4-------4---|------0-------0-|----2-------2---|----2---------0-|
D --0-------0-----|----4-------4---|--4-------4-----|--4-------------|
A ----------------|--2-------2-----|2---------------|2---------------|
E 3---------------|0---------------|----------------|----------------|

e ----------------|----------------|----------------|------2-------2-|
B ------3-------3-|----------------|------3-------3-|----3---3---3---|
G ----0-------0---|------0-------0-|----0-------0---|--2-------2-----|
D --2-------2-----|----4-------4---|--2-------2-----|0---------------|
A 3---------------|--2-------2-----|3---------------|----------------|
E ----------------|0---------------|----------------|----------------|

e ------2-------0-|------0---------|------0---------|------3-------3-| Chorus
B ----3-----------|----1---1-------|----3---3-------|----0-------0---|
G --2-------------|--0-------0-----|--0-------0---0-|--0-------0-----|
D 0---------------|------------2/4-|------------4---|----------------|
A --------2-0-----|3---------------|5---------------|----------------|
E ----------------|----------------|----------------|3-------2-------|

e ------3---------|----------3-----|------0-------0-|--3-----3-----3-|
B ----0---0-------|--------0-------|----1---1-------|----1-----1-----|
G --0-------0---0-|------0---------|--0-------0-----|------0-----0---|
D ------------2---|----0-----------|------------2---|----------------|
A ----------------|0h2--------0h2p0|3---------------|0---------------|
E 0---------------|----------------|----------------|----------------|

e ----3-----3-----|------2-3p2-----|
B 1-----1-----1---|----3-------3---|
G --0-----0-----0-|--2-----------2-|
D ----------------|0---------------|
A ----------------|----------------|
E ----------------|----------------|

e ------3-------1-|------3-----1---|----------------|----------------| Bridge 1
B ----1---1---1---|----1---1-----1-|------3-------1-|------3-----1---|
G --2-------2-----|--2-------2-----|----0---0---0---|----0---0-----0-|
D 3---------------|3---------------|--2-------2-----|--2-------2-----|
A ----------------|----------------|3---------------|3---------------|
E ----------------|----------------|----------------|----------------|

e ------7-------7-|--------8-------|10---10------10-|--------8-----8-|
B ----8---8---8---|8---8-----8---8-|--8-----8---8---|8---8-----7-----|
G --7-------7-----|--7---7-----7---|----7-----7-----|--7---7-----7---|
D 0---------------|-------(0)------|0)--------------|--------0-------|
A ----------------|----------------|----------------|----------------|
E ----------------|----------------|----------------|----------------|

Born on different sides of life
We fear the same and feel all of this strife
So come to me when I'm asleep ( sleep )
We'll cross the lines and dance upon the streets
And now I know what they're saying as the drums begin to fade
And we made our love on wasteland and through the barricades

           Born...              ...life
e ----------------|----------------|----------------|--------5^2-----| Verse 3
B ------3-------3-|----------------|------3-------3-|------3-----3---|
G ----4-------4---|------0-------0-|----2-------2---|----2---------0-|
D --0-------0-----|----4-------4---|--4-------4-----|--4-------------|
A ----------------|--2-------2-----|2---------------|2---------------|
E 3---------------|0---------------|----------------|----------------|

           We feel...                              ...strife
e ----------------|----------------|------3-------3-|------3---------|
B ------3-------3-|----------------|----1-------1---|----1---1-------|
G ----0-------0---|------0-------0-|--2-------2-----|--0-------0-----|
D --2-------2-----|----4-------4---|3---------------|------------2---|
A 3---------------|--2-------2-----|----------------|3---------------|
E ----------------|0---------------|----------------|----------------|

        So...                      ...asleep
e ----------------|----------------|----------------|--------5^2-----|
B ------3-------3-|----------------|------3-------3-|------3-----3---|
G ----4-------4---|------0-------0-|----2-------2---|----2---------0-|
D --0-------0-----|----4-------4---|--4-------4-----|--4-------------|
A ----------------|--2-------2-----|2---------------|2---------------|
E 3---------------|0---------------|----------------|----------------|

                We'll...                           ...streets
e ----------------|----------------|----------------|------2-------2-|
B ------3-------3-|----------------|------3-------3-|----3---3---3---|
G ----0-------0---|------0-------0-|----0-------0---|--2-------2-----|
D --2-------2-----|----4-------4---|--2-------2-----|0---------------|
A 3---------------|--2-------2-----|3---------------|----------------|
E ----------------|0---------------|----------------|----------------|

And now I...                         ...as the drums...
e ------2-------0-|------0---------|------0---------|------3-------3-| Chorus
B ----3-----------|----1---1-------|----3---3-------|----0-------0---|
G --2-------------|--0-------0-----|--0-------0---0-|--0-------0-----|
D 0---------------|------------2/4-|------------4---|----------------|
A --------2-0-----|3---------------|5---------------|----------------|
E ----------------|----------------|----------------|3-------2-------|

...and we made...
e ------3---------|----------3-----|------0-------0-|--3-----3-----3-|
B ----0---0-------|--------0-------|----1---1-------|----1-----1-----|
G --0-------0---0-|------0---------|--0-------0-----|------0-----0---|
D ------------2---|----0-----------|------------2---|----------------|
A ----------------|0h2--------0h2p0|3---------------|0---------------|
E 0---------------|----------------|----------------|----------------|

                   ...through the barricades
e ----3-----3-----|------2-3p2-----|----------------|----------------|
B 1-----1-----1---|----3-------3---|----------------|----------------|
G --0-----0-----0-|--2-----------2-|----------------|----------------|
D ----------------|0---------------|----------------|----------------|
A ----------------|----------------|----------------|----------------|
E ----------------|----------------|3---------------|----------------|

Bridge 2 (strummed at the beginning)
F   C                   G (2x)
Oh turn around and I'll be there
          F                           C                  G (2x)
There's a scar right through my heart but I'll bear it again
     F                         C
Oh I thought we were the human race, But we were

just another borderline case
And the stars reach down and tell us there's always one escape

..just...          ...case                         .. stars reach ..
e ------3-------3-|--------0-------|----------------|------3-------3-|
B ----0-------0---|--------3-------|----------------|----3---3---3---|
G --0-------0-----|--------0-------|----------------|--5-------5-----|
D ----------------|--------4(let-it|-ring)----------|----------------|
A ----------------|--------2-------|----------------|3---------------|
E 3-------2-------|0-------0-------|----------------|----------------|

                             .. escape ..
e ------3-------3-|------3-------3-|--2-------------|----------------|
B ----3---3---3---|----3---3---3---|--3-------------|----------------|
G --5-------5-----|--5-------5-----|--2(let-it-ring)|----------------|
D ----------------|0---------------|--0-------------|----------------|
A 3---------------|----------------|----------------|----------------|
E ----------------|----------------|----------------|----------------|

Verse 4 (strummed):
   G       D                   Em (2x)
Oh I don't know where love has gone
C            Em           C                    D
And in this troubled land desperation keeps us strong
  G        Dsus4                Em (2x)
A friday's child is through the soul
C             Em                      C            D
(With) nothing left to lose there's everything to go

Chorus (strummed):
D           C                 D            G (1/2x)  G/F# (1/2x)  Em (1+1/2)x
And now I know what they're saying it's a terrible beauty we've made
D (1/2x)     C          Asus4 (2x)            D          G
So we make our love on wasteland and through the barricades
          C                 D             Em(1/2x) D(1/2x) C (3x)
And now I know what they're saying as our hearts go to their graves
       (C)             Asus4(2x) C (2x)    D (2x)
And we made our love on wasteland and through  The barricades

Fade out playing this repeatedly
e ------3-------1-|------3-----1---|----------------|----------------| Ending
B ----1---1---1---|----1---1-----1-|------3-------1-|------3-----1---|
G --2-------2-----|--2-------2-----|----0---0---0---|----0---0-----0-|
D 3---------------|3---------------|--2-------2-----|--2-------2-----|
A ----------------|----------------|3---------------|3---------------|
E ----------------|----------------|----------------|----------------|

Special Chords:
G/F#    2x0003
Asus4   x02230
Dsus4   xx0233
            
Submit corrections

comments powered by Disqus
↑ Back to top | Spandau Ballet Tabs for Through The Barricades. Lyrics for acoustic guitar and electric guitar. 1 Tablatures and chords are parodies/interpretations of the original songs. You may use it for private study, scholarship, research or language learning purposes only