» » »

Span, Papa Tabs (ver.1)

Artists:  A B C D E F G H I J K L M N O P Q R S T U V W X Y Z # 

Papa Tabs (ver.1)

Span Tabs
 Rating:
4/5 (4 votes)
Papa lessons Tabs too difficult? Try these video lessons and learn fast
                                             Span - Papa


  Tune to dropped-D then down 1 1/2 steps.


  MAIN RIFF
                                                                         
       Db--||---------------------------||
       Ab--||---------------------------||
       E---||*-------------------------*||
       B---||*----------------2--2--2--*|| 
       Gb--||-----------------2--2--2---||
       B---||---2h4p2-4/6--6--2--2--2---||
                                                                        

  BRIDGE (1)
                                            
      Db|------------------------------------------------|
      Ab|------------------------------------------------|         
      E |------------------------------------------------|   
      B |--1/--4-----/---7-----/---10-----\---9-----2-2-2|    
      Gb|--1/--4 X16-/---7 X16-/---10 X16-\---9 X8--2-2-2|             
      B |--1/--4-----/---7-----/---10-----\---9-----2-2-2|
         
         1-4 is a Quick            
            slide
   

  BRIDGE (2)
                                            
      Db|---------------------------------------------------|
      Ab|---------------------------------------------------|  
      E |---------------------------------------------------|
      B |--1/---4------/------7------/---10------\----9-----|                
      Gb|--1/---4 X16--/------7 X16--/---10 X16--\----9 X10-|             
      B |--1/---4------/------7------/---10------\----9-----|
   
         1-4 is a Quick            
            slide


   CHORUS   (I am the papa...) 

       Db--|---------|
       Ab--|---------|
       E---|---------|  
       B---|--5--6-X-|
       Gb--|--5--6-X-|
       B---|--5--6-X-|

      
   MAIN RIFF (2)

       Db--||-------------------||
       Ab--||-------------------||
       E---||*------------------||
       B---||*----------------2-|| 
       Gb--||-----------------2-||
       B---||---2h4p2-4/6--6--2-||


   "SOLO"
      
       Db--|---------------|---------------------------|         
       Ab--|---------------|---------------------------|         
       E---|---------------|---------------------------|         
       B---|---/---12 X10--|---/---12 X5---/12^14--14--|       
       Gb--|---------------|---------------------------|         
       Bb--|---------------|---------------------------|        
                                       



   "END SOLO"
       Db--|---------------|-----------------------------|
       Ab--|---------------|-----------------------------|
       E---|---------------|-----------------------------|
       B---|---/---12 X10--|---/---12 X5---/12---14----2-|
       Gb--|---------------|---------------------------2-|
       Bb--|---------------|---------------------------2-|

                                     Db--|---------------|
                                     Ab--|---------------|
                                     E---|---------------|
                         GUITAR 2 -  B---|--5-----6----2-|
                                     Gb--|--5-----6----2-|
                                     B---|--5-----6----2-|                                 



      ORDER
     
     MAIN RIFF (1) X 7
     VERSE                (NO GUITAR)
     BRIDGE (1) X 1
     MAIN RIFF X 3        (leave out last 2 chords in 3rd repeat)
     VERSE                (NO GUITAR)
     BRIDGE (2)
     CHORUS   X 4
     SOLO     X 2            (with MAIN RIFF (1) UNDERNEATH)
     VERSE with MAIN RIFF (2) EVERY OTHER BAR.
     BRIDGE (2)
     CHORUS   X 7          (with string muting between repeats)   
     SOLO     X 3
     END SOLO X 1
========================================================================
==               Created with BUCKET O' TAB for Windows               ==
========================================================================
            
Submit corrections

comments powered by Disqus
↑ Back to top | Span Tabs for Papa. Lyrics for acoustic guitar and electric guitar. Tablatures and chords are parodies/interpretations of the original songs. You may use it for private study, scholarship, research or language learning purposes only