» » »

Spacehog, In The Meantime Tabs (ver.2)

Artists:  A B C D E F G H I J K L M N O P Q R S T U V W X Y Z # 

In The Meantime Tabs (ver.2)

Spacehog Tabs
 Rating:
4/5 (4 votes)
In The Meantime lessons Tabs too difficult? Try these video lessons and learn fast
1
                Tuning:Standard

^ = Bend
/ = Slide down
 = Slide up



Intro 


E|-----------------------------------------------------|
B|------7--7---10--10---7--7---10--10------------------|
G|-------9-------9-------9-------9---------------------|
D|-----------------------------------------------------|
A|-----------------------------------------------------|
E|-----------------------------------------------------|



      A          D           F#                                       (X3)
E|-------------------------------x-x-----------------------------------|
B|-------------------------------x-x-----------------------------------|
G|---------------7-7-x-x---------x-x-----5^-5^-5-3---------------------|
D|----7-7-x-x----7-7-x-x-----4-4-x-x---------------4-2-----------------|
A|----7-7-x-x----5-5-x-x-----4-4-x-x-----------------------------------|
E|----5-5-x-x----x-x-x-x-----2-2-x-x-----------------------------------|

      A	     G         F#
E|------------------------------------------------|
B|------------------------------------------------|
G|------------------------------------------------|
D|---7-7-7-7--5-5-5-5--4-4-4-4-4-4-4-4------------|
A|---7-7-7-7--5-5-5-5--4-4-4-4-4-4-4-4------------|
E|---5-5-5-5--3-3-3-3--2-2-2-2-2-2-2-2------------|



Verse
E|-----------------------------------------------------|
B|------7--7---10--10---7--7---10--10------------------|
G|-------9-------9-------9-------9---------------------|
D|-----------------------------------------------------|
A|-----------------------------------------------------|
E|-----------------------------------------------------|



Chorus
       A          D          F#                                       (X3)
E|-------------------------------x-x-----------------------------------|
B|-------------------------------x-x-----------------------------------|
G|---------------7-7-x-x---------x-x-----5^-5^-5-3---------------------|
D|----7-7-x-x----7-7-x-x-----4-4-x-x---------------4-2-----------------|
A|----7-7-x-x----5-5-x-x-----4-4-x-x-----------------------------------|
E|----5-5-x-x----x-x-x-x-----2-2-x-x-----------------------------------|

      A	     G         F#
E|------------------------------------------------|
B|------------------------------------------------|
G|------------------------------------------------|
D|---7-7-7-7--5-5-5-5--4-4-4-4-4-4-4-4------------|
A|---7-7-7-7--5-5-5-5--4-4-4-4-4-4-4-4------------|
E|---5-5-5-5--3-3-3-3--2-2-2-2-2-2-2-2------------|


Bridge

...Well that sounds fine I'll see ya sunshine
   C   	
E|------------------------------------------------|
B|------------------------------------------------|
G|-5-5-5-5-5-5-5-5-5-5-5-5-5-5-5-5-5-5-5-5-5-5-5--|
D|-5-5-5-5-5-5-5-5-5-5-5-5-5-5-5-5-5-5-5-5-5-5-5--|
A|-3-3-3-3-3-3-3-3-3-3-3-3-3-3-3-3-3-3-3-3-3-3-3--|
E|------------------------------------------------|


...And give my love to the future of mankind
   D
E|-----------------------------------------------------|
B|-----------------------------------------------------|
G|-7-7-7-7-7-7-7-7-7-7-7-7-7-7-7-7-7-7-7-7-7-7---------|
D|-7-7-7-7-7-7-7-7-7-7-7-7-7-7-7-7-7-7-7-7-7-7---------|
A|-5-5-5-5-5-5-5-5-5-5-5-5-5-5-5-5-5-5-5-5-5-5---------|
E|-----------------------------------------------------|

...Okay, Okay,  it's not okay
    G    F#              E
E|-----------------------------------------------------|
B|-----------------------------------------------------|
G|-----------------------------------------------------|
D|-5-----4-----4/54-----2-----------------------------|
A|-5-----4-----4/54-----2-----------------------------|
E|-3-----2-----2/32-----0-----------------------------|

...And while its on my mind there's a girl to fit the crime
   C
E|------------------------------------------------|
B|------------------------------------------------|
G|-5-5-5-5-5-5-5-5-5-5-5-5-5-5-5-5-5-5-5-5-5-5-5--|
D|-5-5-5-5-5-5-5-5-5-5-5-5-5-5-5-5-5-5-5-5-5-5-5--|
A|-3-3-3-3-3-3-3-3-3-3-3-3-3-3-3-3-3-3-3-3-3-3-3--|
E|------------------------------------------------|

...of a future lover's dream that we've still to find
   C#
E|-----------------------------------------------------|
B|-----------------------------------------------------|
G|-4-4-4-4-4-4-4-4-4-4-4-4-4-4-4-4-4-4-4-4-4-4---------|
D|-4-4-4-4-4-4-4-4-4-4-4-4-4-4-4-4-4-4-4-4-4-4---------|
A|-2-2-2-2-2-2-2-2-2-2-2-2-2-2-2-2-2-2-2-2-2-2---------|
E|-----------------------------------------------------|

...but in the meantime
   E
E|-------12^-12^-12^-12^--10^--------------------------|
B|-----------------------------9^----------------------|
G|-----------------------------------------------------|
D|-2---------------------------------------------------|
A|-2---------------------------------------------------|
E|-0---------------------------------------------------|



?Solo?

OUtro
    A       D        F#     B Bb
E|-----------------------------------------------------|
B|-----------------------------------------------------|
G|----------7-7-x-x---------4-3------------------------|
D|--7-7-x-x-7-7-x-x-4-4-x-x-4-3------------------------|
A|--7-7-x-x-5-5-x-x-4-4-x-x-2-1------------------------|
E|--5-5-x-x---------2-2-x-x----------------------------|

    A       D       F#      B Bb A
E|-----------------------------------------------------|
B|-----------------------------------------------------|
G|----------7-7-x-x---------4-3--2---------------------|
D|--7-7-x-x-7-7-x-x-4-4-x-x-4-3--2---------------------|
A|--7-7-x-x-5-5-x-x-4-4-x-x-2-1--0---------------------|
E|--5-5-x-x---------2-2-x-x----------------------------|
            
Submit corrections

comments powered by Disqus
↑ Back to top | Spacehog Tabs for In The Meantime. Lyrics for acoustic guitar and electric guitar. 1 Tablatures and chords are parodies/interpretations of the original songs. You may use it for private study, scholarship, research or language learning purposes only