» » »

Sound Of Music, My Favorite Things Tabs (ver.1)

Artists:  A B C D E F G H I J K L M N O P Q R S T U V W X Y Z # 

My Favorite Things Tabs (ver.1)

Sound Of Music Tabs
 Rating:
4/5 (11 votes)
My Favorite Things lessons Tabs too difficult? Try these video lessons and learn fast
                -------------------------------------------------------------------------------
-------------------------------------------------------------------------------

Well, I was just playing around to see if I could figure out this song and I think it came
out pretty good.

Hope you enjoy it!


Tune the 6th string down to D#
Or you can play it without the bass line.

 e||---6-6-----------------|---6-6-----------------|---6-4---4-2---4-2---|--------1-2-4-6-4---||
 B||-4-----6-4-4---4-4-6-4-|-4-----6-4-4---4-4-6-4-|-4-----6-----2-------|----2-4-----------3-||
 G||-------------3---------|-------------3---------|-------------------4-|3-4-----------------||x3
 D||-----------------------|-----------------------|---------------------|--------------------||
 A||-----------------------|-----------------------|-2-----------------2-|------2-----------1-||
D#||-0-----------0---------|-5-----------5---------|-------5-----3-------|3-----------5-------||


 e|-6-6-6\--4-4-4\--2-2-2-----|---------------2-4-2-4-|-2-6-7-6-7-6-2----|
 B|-------4-------2-------2-4-|-4-4-6-4-6-4-6---------|-------------2----|
 G|---------------------------|-----------------------|-------------3----|
 D|---------------------------|-----------------------|-------------4----|
 A|---------------4---------2-|---2-----------1-------|-------------4----|
D#|-3-----0-5-------3---------|---------5-----------3-|---7-----4--------|
            
Submit corrections

comments powered by Disqus
↑ Back to top | Sound Of Music Tabs for My Favorite Things. Lyrics for acoustic guitar and electric guitar. Tablatures and chords are parodies/interpretations of the original songs. You may use it for private study, scholarship, research or language learning purposes only