» » »

Rocket Ride Bass tabs (ver.1)

Artists:  A B C D E F G H I J K L M N O P Q R S T U V W X Y Z # 

Rocket Ride Bass tabs (ver.1)

Soulwax
Rating:
0/5 (0 votes)

Hard to play? Try these video lessons and learn fast.
                

Original By: Felix Da Housecat

Album:Most of the remixes we've made for other people 
over the years except for the one for Einstürzende Neubauten 
because we lost it and a few we didn't think sounded 
good enough or just didn't fit in length-wise, 
but including some that are hard to find because 
either people forgot about them or simply 
because they haven't been released yet, a few we really love, 
one we think is just ok, some we did for free, some we did for money, 
some for ourselves without permission and some for friends as swaps 
but never on time and always at our studio in Ghent.

Label: Parlophone


This is the bassline for this remix, which a pretty cool remix.
This song was on Need For Speed Underground 2, and is probably where most
people heard it unless if they're fans of the band or they live in an area
where soulwax is somewhat famous. Have fun, please rate, comment, and enjoy!

Listen to the song for correct timing.

Part A (0:00 - 0:11):

G|--------------------------------------|
D|--------------------------------------|
A|--------------------------------------|
E|--------------------------------------|

Part B (0:12 - 1:12)

G|---4-4-4-4-4-4-4---2-2-2-2-2-2-2-|
D|-2---------------2---------------|
A|---------------------------------|
E|---------------------------------|x17

Part C (1:15 - 2:32)

G|----------------|--------------|
D|---------2---4--|---0--2---4---|
A|-2h4p2-2---2--2-|-2---2--2--2--|
E|----------------|--------------|x21

Part D (2:33 - END)

G|--------------------------------------|
D|--------------------------------------|
A|--------------------------------------|
E|--------------------------------------|


*****************

|h - Hammer on
|p - Pull off

*****************
            
Hard to play? Try these video lessons and learn fast. | Correct




comments powered by Disqus
↑ Back to top | Tablatures and chords are parodies/interpretations of the original songs. You may use it for private study, scholarship, research or language learning purposes only