» » »

Soulwax, Much Against Everyone's Advice Tabs (ver.1)

Artists:  A B C D E F G H I J K L M N O P Q R S T U V W X Y Z # 

Much Against Everyone's Advice Tabs (ver.1)

Soulwax Tabs
 Rating:
4/5 (4 votes)
Much Against Everyone's Advice lessons Tabs too difficult? Try these video lessons and learn fast
                
LYRICS & MUSIC: Stephen & David Dewaele

I've seen several versions of this song tabbed out on the net and they're all either
Wrong or incomplete so I cannibalized the bits that were right and filled in the
Missing gaps and so I give you the most accurate guide to playing this song (at least
until someone corrects my mistakes).


This song uses drop D tuning (DADGBe). You'll need to listen to the song to get
the timing. I've included the lyrics as a general outline to show you what goes where.

I recommend a light/moderate distortion (gain 4) and a guitar with humbuckers set to
bridge position (eliminating any unwanted extra bass) this even sounds good on a small
practice amp also if you have a Casio keyboard one of the preset rock rhythms will give
you a good approximation of the drum machine at the begining of the song.

So get out your guitars and pastel coloured seventies suits and have fun.

INTRO
|---------------------------------------------------------------------------------|
|---------------------------------------------------------------------------------|
|---------------------------------------------------------------------------------|
|---------------------------------------------------------------------------------|
|---------------------------------------------------------------------------------|
|-12-12--12-12-12--12-12-12--12-12-12--12-12-12--12-12-12--12-12-12--12-12-12-----|

|---------------------------------------------------------------------------------|
|---------------------------------------------------------------------------------|
|---------------------------------------------------------------------------------|
|---------------------------------------------------------------------------------|
|---------------------------------------------------------------------------------|
|-12-12-12--12-12-12--12-12-12--12-12-12--12-12-12--12-12-12--12-12-12--12-11-10--|
'I seem to have a history........

RIFF 1
|---------------------------------------------------------------------------------|
|---------------------------------------------------------------------------------|
|---------------------------------------------------------------------------------|
|---------------------------------------------------------------------------------|
|---------------------------------------------------------------------------------|
|-10-10-10--3-4-5--5-5-5-5b6-6-6-0--12-12-12--12-12-12--12-12-12------------------|


((the 'heavy' part :)

|------------------------------------------|
|------------------------------------------|
|------------------------------------------|
|--10-10-0-4-0-5-8-8-3-0-------------------|
|--10-10-0-4-0-5-8-8-3-0-------------------|
|--10-10-0-4-0-5-8-8-3-0-12-12-12-12-12-12-|
'..You...'

|-------------------------------------|
|-------------------------------------|
|-------------------------------------|
|-------------------------------------|
|-------------------------------------|
|-12-11-9-7-5-4-2-4-5-7-12-11-9-7-5-4-|
    '....tiiiiiiime..........'

|---------------------------------------------------------------------------------|
|---------------------------------------------------------------------------------|
|---------------------------------------------------------------------------------|
|---------------------------------------------------------------------------------|
|---------------------------------------------------------------------------------|
|-2-2-2-2-2-2-2-2-2-2-2-2-2h4-5-5-5-5-5-5-5-5-5-5-5h7-7-7-7-----------------------|

'..stop communicating, Please anticipate.....'

|---------------------------------------------------------------------------------|
|---------------------------------------------------------------------------------|
|---------------------------------------------------------------------------------|
|-0-0-0-0-0-6-6-6-7-7-7-7-8-8-8-8-10-10-10-11-11-11-------------------------------|
|-0-0-0-0-0-6-6-6-7-7-7-7-8-8-8-8-10-10-10-11-11-11-------------------------------|
|-0-0-0-0-0-6-6-6-7-7-7-7-8-8-8-8-10-10-10-11-11-11-------------------------------|

..........'Im trying to comprehend the things i write.....'

Just repeat different sections as necessary I haven't shown you where everything goes
because it could confuse things but its pretty is easy to see where it all fits.


Lyrics
******
I seem to have a history
at missing the point
at this stuff
apparently
very absentmindedly
I care
but never enough
for

you

Tiiiiiiiime-to set the record straight
Tiiiiiiiime-to stop communicating
please anticipate

And I'm trying to comprehend the things I write
and I'm living the lie that I cannot satisfy
Much against everyone's advice
I'm still trying, I'm trying, I'm trying, I'm trying

Faith
cheated me of everything
but I laughed until
I stopped
publicity
very, very openly
I sat alone with my thoughts
for
...
you

Tiiiiiiiime-to set the record straight
Tiiiiiiiime-to stop communicating
please anticipate

And I'm trying to comprehend the things I write
and I'm living the lie that I cannot satisfy
much against everyone's advice
I'm still trying, I'm trying, I'm trying, I'm trying
            
Submit corrections

comments powered by Disqus
↑ Back to top | Soulwax Tabs for Much Against Everyone's Advice. Lyrics for acoustic guitar and electric guitar. Tablatures and chords are parodies/interpretations of the original songs. You may use it for private study, scholarship, research or language learning purposes only