» » »

Conversation Intercom Tabs (ver.1)

Artists:  A B C D E F G H I J K L M N O P Q R S T U V W X Y Z # 

Conversation Intercom Tabs (ver.1)

Soulwax
Rating:
0/5 (0 votes)

Hard to play? Try these video lessons and learn fast.
                

Tuning: Standard

There are far too few tabs for this great band. ive only been playing a year and a half,
but i thought id try and do this band some justice.
- only found bass tabs for this song so far, so here's my 1st attempt at the guitar part.

Not too sure about how to do the timings either, but listen to the song, it should be fairly
easy to work out.


Intro.

E |-7-7-7-7-7-7-7-7-7-7-7-7-7-7-7-7-3-3-3-3-3-3-3-3-2-2-2-2-2-2-2-2-0-0-0-0-2-  |-2-2-2-|



Verse

 e|----------------------------------------------------------------------------
  |----------------------------------------------------------------------------
  |----------------------------------------------------------------------------
  |-9-9-9-9-9-9-9-9-9-9-9-9-9-9-9-9-5-5-5-5-5-5-5-5-4-4-4-4-4-4-4-4-2-2-2-2-4-
  |-9-9-9-9-9-9-9-9-9-9-9-9-9-9-9-9-5-5-5-5-5-5-5-5-4-4-4-4-4-4-4-4-2-2-2-2-4-
 E|-7-7-7-7-7-7-7-7-7-7-7-7-7-7-7-7-3-3-3-3-3-3-3-3-2-2-2-2-2-2-2-2-0-0-0-0-2-

  |-4-4-4-|
  |-4-4-4-|
  |-2-2-2-|


2nd Guitar over top

A |-7-7-7-7-5/6-6/7-7-2/5/2-2-2-2-| x3 (without the 7's; just the slide part) end with -0-0-0-0



Chorus

ummm. i think the chords are something like: B, F#, E, G, E, F#, G, A.

 |____|<--- can play 7th fret on E as used above if you prefer, but i dont think it sounds (B)
   ^	    quite right.
   |
   |
e|---------------------------------|   
 |---------------------------------|
 |-4-4-----------------------------|
 |-4-4-4-4-2-2-5-5-2-2-4-4-5-5-7-7-|	x2 Then back to the verse
A|-2-2-4-4-2-2-5-5-2-2-4-4-5-5-7-7-|
E|-----2-2-0-0-3-3-0-0-2-2-3-3-5-5-|

Verse x1 
Intro x1- sounds kinda muffled.
Chorusx2

Bridge.

|------------------------|
|------------------------|
|------------------------|   x4
|-9-9-11-11-12/4-4-5-5-7-|  
|-9-9-11-11-12/4-4-5-5-7-|
|-7-7-9--9--10/2-2-3-3-5-|



"Clap your hands if you know what to say"

|------------------------------------------------------------------------------
|------------------------------------------------------------------------------
|------------------------------------------------------------------------------
|-9-9-9-9----------------------------------------------------------------------
|-9-9-9-9-5/6-6/7-2/5/2-2-2-2-5/6-6/7-2/5/2-2-2-2-5/6-6/7-2/5/2-2-2-2-5b-2-5b-2
|-7-7-7-7----------------------------------------------------------------------

|--------------------------------------------------------|
|--------------------------------------------------------|
|--------------------------------------------------------|
|--------------------------------------------------------|
|-2-5b-2-2-2-2-5/6-6/7-2/5/2-2-2-2-5/6-6/7-7-2/5/2-2-2-2-|
|--------------------------------------------------------|


Then it goes back to the bridge part x4

- ends on 9
	  9
	  7   - then piano comes in  chords to play on guitar are:

|-2----3----x----7-|
|-2----3----5----7-|
|-3----4----6----8-|
|-4----5----7----9-|
|-4----5----7----9-|
|-2----3----x----7-|


well. thats about it for now. i thought it sounded quite good. esp along with the song.

let me know what you think!

laters ppl.
            
Hard to play? Try these video lessons and learn fast. | Correct




comments powered by Disqus
↑ Back to top | Tablatures and chords are parodies/interpretations of the original songs. You may use it for private study, scholarship, research or language learning purposes only