» » »

Sonic Youth, Genetic Tabs (ver.1)

Artists:  A B C D E F G H I J K L M N O P Q R S T U V W X Y Z # 

Genetic Tabs (ver.1)

Sonic Youth Tabs
 Rating:
4/5 (4 votes)
Genetic lessons Tabs too difficult? Try these video lessons and learn fast
1
                SONIC YOUTH - "Genetic"


Tuning = GGBDGG

NB - Timing not shown correctly throughout tab. Easy enough to figure out.

Intro and Verse:

G|--------------------
G|--------------------
D|-4-4-4-4-4/9-9-9-9-9
B|-0-0-0-0-0/0-0-0-0-0
G|-0-0-0-0-0/0-0-0-0-0
G|--------------------

Pre-Chorus:

G|---------------------------------------------------
G|---------------------------------------------------
D|---------------------------------------------------
B|-10--10--10---12--10--10--10----10--10---12--10--10
G|--9---7---9---12---7---9---7-----9---7---12---9---7
G|--9---7---9---12---7---9---7-----9---7---12---9---7

Chorus:

G|---7-7-7-7----5-5-5-5
G|---7-7-7-7----5-5-5-5
D|---7-7-7-7----5-5-5-5
B|---8-8-8-8----5-5-5-5
G|---7-7-7-7----5-5-5-5
G|---0-0-0-0----0-0-0-0

Verse Riff x 2, then:

G|------------------
G|------------------  TREM PICK THESE CHORDS
D|-16---12---16---21
B|--0----0----0----0
G|--0----0----0----0
G|------------------

Pre-Chorus
Chorus, then

Bridge: ( "Hey, Baby..." ) - TIMING NOT SHOWN CORRECTLY

G|--5--5--5--5/11--11--11--11--11--11--15--15--15--15--14--14--14--14
G|--5--5--5--5/11--11--11--11--11--11--15--15--15--15--14--14--14--14
D|--0--0--0--0/-0---0---0---0---0---0---0---0---0---0---0---0---0---0
B|-------------------------------------------------------------------
G|-------------------------------------------------------------------
G|-------------------------------------------------------------------

then: ("There's no perfect..." )

G|--------------------------------------
G|----2---2---2---2----3---3---3---3---3
D|--0---0---0---0---0---0---0---0---0---
B|--------------------------------------
G|--------------------------------------
G|--------------------------------------

then: ( " Keep Yr Eyes Wide Open.." )

G|---14------15 TREM PICK THESE CHORDS
G|---14------15
D|----0-------0
B|-------------
G|-------------
G|-------------


Outro:

G|-----------------------------------------------------
G|-----------------------------------------------------
D|-----------------------------------------12---12---10
B|-------------------------------------10--------------
G|--14--15--14--15--14--15---14----12------------------
G|-----------------------------------------------------
            
Submit corrections

comments powered by Disqus
↑ Back to top | Sonic Youth Tabs for Genetic. Lyrics for acoustic guitar and electric guitar. 1 Tablatures and chords are parodies/interpretations of the original songs. You may use it for private study, scholarship, research or language learning purposes only