» » »

Cosmopolitan Girl Bass tabs (ver.1)

Artists:  A B C D E F G H I J K L M N O P Q R S T U V W X Y Z # 

Cosmopolitan Girl Bass tabs (ver.1)

Sonic Youth
Rating:
0/5 (0 votes)

Hard to play? Try these video lessons and learn fast.
                -------------------------------------------------------------------------------
-------------------------------------------------------------------------------


Tuning: Standard

Riff 1:
G|----------------------|
D|-----1-1--------------|
A|-2-2------------------|
E|---------33333-0000---|

Riff 2:
G|---------------------------------------------------------------|
D|---------------------1111-----------------1111-000-------------|
A|-2-2-0-0-0h3333-0000------0000-3333-0000-----------------------|
E|---------------------------------------------------0h3333-0000-|

Structure:
Riff 1 x10
Riff 2 x1
Riff 1 x3
Riff 2 x1
Riff 1 x3
Riff 2 x1
Riff 1 x3
Riff 2 x1
Riff 1 x6
Riff 2 x1
Riff 1 x6
Riff 2 x1
Riff 1 x7
Riff 2 x1
Riff 1 x3
            
Hard to play? Try these video lessons and learn fast. | Correct




comments powered by Disqus
↑ Back to top | Tablatures and chords are parodies/interpretations of the original songs. You may use it for private study, scholarship, research or language learning purposes only