>
 >
Cinderella's Big Score

Cinderella's Big Score Guitar Tabs

Sonic Youth - Cinderella's Big Score chords, tabs, tablatures, lyrics

Guitar lessons | Add/correct | Request | Top 50 tabs Artists:  A B C D E F G H I J K L M N O P Q R S T U V W X Y Z 0-9

Cinderella's Big Score Guitar Tabs – Sonic Youth

CD, Sheet music, Poster

Do you like Cinderella's Big Score? Share with your friends now
Bass TabsTabs
Sonic Youth - Cinderella's Big Score
Album -


tUnInG:
- tM: ACCGG#C
- lR: AABBAA

tM:

intro:
C |--0--0--0--0--0----------------0--------------------|
G#|--9--7--9--7--9bend & release--7---------16---------|
G |--7--5--7--5--7----------------5-etc...--17bend up--|
C |--0--0--0--0--0----------------0--------------------|
C |----------------------------------------------------|
A |----------------------------------------------------|
	(no strumming shown!)

intro-solo:					    bridge chord:
C |------------------5-5--------5-5-5-5-7-7-7-7-7-7-5-7--8---  --x--|
G#|-----6-6-6-6---6-6---6-6--6-6-6----------------------(7)--  --x--|
G |--5-5-5-----5-5--------------------------------------(8)--  --0--|
C |----------------------------------------------------------  --0--|
C |----------------------------------------------------------  --0--|
A |----------------------------------------------------------  --3--|
	(the notes in (), he plays the 3rd & 4th time!)

bridge:			 sometimes:
C |--8--10---8--10--------|--8---12-10---|
G#|--8--10---8--10--------|--8---12--9---|
G |--7---9---7---9-etc...-|--7---11--9---|
C |--0---0---0---0--------|--0-------0---|
C |-----------------------|--------------|
A |-----------------------|--------------|

chorus: If I could give you anything...		bridge to middle part:
C |------x--9-x-9-----                       |------------|
G#|------x--9-x-9-----                       |------------|
G |--9---7--7-7-7--9--                       |---------0--|
C |--9---7--7-7-7--9--                       |--0------0--|
C |--9---7--7-7-7--9--                       |--0------0--|
A |--0-------------0--                       |--2--3-3-3--|

the middle part: (Kim talks) all harmonics!!!
C |-------------------------------|
G#|------7------7------5------5---|
G |----7--7---7--7---5--5---5--5--|
C |---7-7----7-7----5-5----5-5----|
C |--7------7------5------5-------|
A |-------------------------------|

noisy part:
C |--7---9---7---9--------------------------|
G#|--8---9---8---9--------------------------|
G |--9--10---9--10--12*---------------------|
C |-----------------12*---------------------|back to intro........
C |-----------------12*---------------------|
A |-----------------------------------------|

lR:

intro:
A|--5---3---5---3---5---6---5---5--------------------------------|
A|--5---3---5---3---5---6---5---6--------------------------------|
E|----------------------------------8----11----8----11--------8--|
E|----------------------------------8--10--10--8--10--10-x2---8--|
A|-----------------------------------------------------------10--|
A|---------------------------------------------------------------|

intro-solo-part:
A|------------------------------------------------------|
A|---------------11----10-10----------11-10-11----10-10-|
E|- 8- 8--11-11--11- 8- 8- 8---10/11--11----11- 8- 8- 8-|
E|- 8- 8--11-11--11- 8- 8- 8---10/11--11----11- 8- 8- 8-|
A|-10-10--13-----11-10----------------------11-10-------|
A|---------------11-------------------------------------|

...continue:
------------------------------------------------------|
--------11-10-11--------10-11-10------10-p11-10-------|
-10/11--11--------10-p11---------11-10---------11-10--|
-10/11--11--------------------------------------------|
------------------------------------------------------|
------------------------------------------------------|
finish this off with a 3-3-3-3-3-3--------------------| -chord.

bridge: no strumming shown		chorus-riff: if I could give you...
A|--11---13---11---13-----------|---------12-10-12--------------|
A|--11---13---11---13-----------|-12------12-10-12--------------|
E|--10---12---10---12-x2--------|-12--10--10----10--repeat this-|
E|--10---12---10---12-----------|-12--10--10----10--------------|
A|------------------------------|-12----------------------------|
A|------------------------------|-------------------------------|

bridge chord:		middle part: (kim talks)
A|-----            |--7---5--3----7---5--3----7---5--3--|
A|-----            |--7---5--3----7---5--3----7---5--3--|
E|--3--            |------------------------------------|
E|--3--            |------------------------------------|
A|--3--            |------------------------------------|
A|-----            |------------------------------------|
(no strumming shown)

noisy part:
A|--19---17--15---19---17--15-----|
A|--19---17--15---19---17--15-----|
E|------------------------------3-|
E|------------------------------3-|
A|------------------------------3-|
A|--------------------------------|

After the noisy part, he returns to the intro and play everything once
more.

#Taliani#





Comments


Popular Sonic Youth tabs & chords
Confusion Is Next Bass Tabs
Hotwire My Heart 1 Bass Tabs
Sunday Bass Tabs
Bone 1 Tabs
Eliminator Jr Tabs
Junkie's Promise 1 Tabs
Mackin' For Doober 1 Tabs
Mary Christ Tabs
Sunday Tabs
Guitar Tunings Ukulele


Song lyrics



↑ Back to top | Tablatures and chords are parodies/interpretations of the original songs. You may use it for private study, scholarship, research or language learning purposes only
© 2014 AZChords.com Contact us | Privacy policy | DMCA | Add/correct tabs | Request tabs | Top 50 tabs