» » »

Ya Basta Bass tabs (ver.1)

Artists:  A B C D E F G H I J K L M N O P Q R S T U V W X Y Z # 

Ya Basta Bass tabs (ver.1)

Sonic Boom Six
Rating:
0/5 (0 votes)

Hard to play? Try these video lessons and learn fast.
                Verse
G|-----------------------|
D|-*---5555------------*-|
A|-*-3------3--3---1-2-*-|
E|---------------3-------|

Chorus
G|------------------------|
D|-*--------5-----------*-|
A|-*-3--3-6----3--3-1-2-*-|
E|------------------------|

And that's it... play it smooth for a groovy dub feel.
            
Hard to play? Try these video lessons and learn fast. | Correct




comments powered by Disqus
↑ Back to top | Tablatures and chords are parodies/interpretations of the original songs. You may use it for private study, scholarship, research or language learning purposes only