» » »

Sonic Boom Six, The Reckoning Tabs (ver.1)

Artists:  A B C D E F G H I J K L M N O P Q R S T U V W X Y Z # 

The Reckoning Tabs (ver.1)

Sonic Boom Six Tabs
Rating:
4/5 (1 vote)
Hard to play? Try these video lessons and learn fast.
                Sonic Boom Six
sfc


INTRO

Melodica

G A# D D# D
G A# D D# DCA#AG
G A# D D# D
G A# D GG F D#        <--the last GG and F are the octave above the first G



INTRO/VERSE     (synctopated)
  G    Cm        A#     D
e--3--3--3--3--|--1--1-/-5--5--|
B--3--3--4--4--|--3--3-/-7--7--|
G--4--4--5--5--|--3--3-/-7--7--|
D--5--5--5--5--|--3--3-/-7--7--|
A--5--5--3--3--|--1--1-/-5--5--|
E--------------|---------------|



PRECHORUS
 A#             Cm     Dm Cm   A#             Cm        C#m Dm
e--1--1--1--1--|--3--3--5--3--|--1--1--1--1--|--3--3---334|--5--5--5--5--|
B--3--3--3--3--|--4--4--6--4--|--3--3--3--3--|--4--4---445|--6--6--6--6--|
G--3--3--3--3--|--5--5--7--5--|--3--3--3--3--|--5--5---556|--7--7--7--7--|
D--3--3--3--3--|--5--5--7--5--|--3--3--3--3--|--5--5---556|--7--7--7--7--|
A--1--1--1--1--|--3--3--5--3--|--1--1--1--1--|--3--3---334|--5--5--5--5--|
E--------------|--------------|--------------|------------|--------------|

 Cm             D#     Dm      Cm
e--3--3--3--3--|--6--6--5--5--|--3--3--------|
B--4--4--4--4--|--8--8--6--6--|--4--4--------|
G--5--5--5--5--|--8--8--7--7--|--5--5--------|
D--5--5--5--5--|--8--8--7--7--|--5--5--------|
A--3--3--3--3--|--6--6--5--5--|--3--3--------|
E--------------|--------------|--------------|




RAP
  D#             F              D#             F              D#             F
e--6--6--6--6--|--8--8--8--8--|--6--6--6--6--|--8--8--8--8--|--6--6--6--6--|--8--8--8--8--|
B--8--8--8--8--|--10-10-10-10-|--8--8--8--8--|--10-10-10-10-|--8--8--8--8--|--10-10-10-10-|
G--8--8--8--8--|--10-10-10-10-|--8--8--8--8--|--10-10-10-10-|--8--8--8--8--|--10-10-10-10-|
D--8--8--8--8--|--10-10-10-10-|--8--8--8--8--|--10-10-10-10-|--8--8--8--8--|--10-10-10-10-|
A--6--6--6--6--|--8--8--8--8--|--6--6--6--6--|--8--8--8--8--|--6--6--6--6--|--8--8--8--8--|
E--------------|--------------|--------------|--------------|--------------|--------------|

  D    D#         F
e--5--5--6--6--|--8--8--------|
B--7--7--8--8--|--10-10-------|
G--7--7--8--8--|--10-10-------|
D--7--7--8--8--|--10-10-------|
A--5--5--6--6--|--8--8--------|
E--------------|--------------|


END
e-----------|
B--3~-------|
G--4~-------|
D--5~-------|
A--5~-------|
E-----------|
            

comments powered by Disqus
↑ Back to top | Sonic Boom Six Tabs for The Reckoning. Lyrics for acoustic guitar and electric guitar. Tablatures and chords are parodies/interpretations of the original songs. You may use it for private study, scholarship, research or language learning purposes only