» » »

Sonic Boom Six, Meanwhile Back In The Real World Bass tabs (ver.1)

Artists:  A B C D E F G H I J K L M N O P Q R S T U V W X Y Z # 

Meanwhile Back In The Real World Bass tabs (ver.1)

Sonic Boom Six Tabs
 Rating:
3.7/5 (6 votes)
Meanwhile Back In The Real World lessons Tabs too difficult? Try these video lessons and learn fast
1
                intro chords - Em G C, Bm G Em, Em G C, Eb, C B G Eb

intro - G|----------|---------|----------|-------|----------|
        D|--2-------|---------|--2-------|-1~----|--------1-|
        A|------3---|--2------|------3---|-------|---3-2----|
        E|----3-----|----3-0--|----3-----|-------|-------3--|

verse chords- Em Am Bm C,B,G,Eb
              Em C Bm C,B,G,Eb
              Em C,B,G,Eb

     main riff part

        G|----------|---------|-----------|------------|---------|
        D|-22-0-22-0|-2200----|-----------|------------|-------1-|
        A|----------|-----3322|-00---00-00|----22222222|-3-2-----|
        E|----------|---------|----3------|332---------|-----3---|

        G|----------|---------|-----------|-------------|----------|
        D|-22-0-22-0|-2200----|-----------|-------------|-------1--|
        A|----------|-----3322|-33-2-33-23|220--22222222|--3-2-----|
        E|----------|---------|-----------|-------------|-----3----|

Pre-Chorus chords  CCCC C,B,G Bb A Bb A Bb C

        G|-x-5-x-5-x-5|---------|
        D|-x-5-x-5-x-5|---------|
        A|------------|-3-2---1-|
        E|------------|-----3---|


       G|-x-2-x-2-x-2-x-2|-x-2-x-2-x-2-x-3|
       D|-x-2-x-2-x-2-x-2|-x-2-x-2-x-2-x-3|
       A|----------------|----------------|  X2 
       E|----------------|----------------|

       G|---------|---------|
       D|---------|-------1-|
       A|-33333332|-3-2-----|
       E|---------|-----3---|

       Chorus Chords-  Em Am Bm C,G,B,Eb


       G|-------|-------4|-2~-----|--------|--------|
       D|-2-----|--------|--2~----|--------|------1-|
       A|---0-xx|-2------|----2~--|22222222|-3-2----|
       E|--0----|--------|------2~|--------|-----3--|


      Sax Solo (same as verse)
 
        

      Mid 8 Chords- C D Am C,B.G.Eb 

        G|--5~--|--2~-|--2~-|---------|
        D|------|--0~-|-----|-------1-|
        A|--3~--|-----|--0~-|-3-2-----|
        E|------|-----|-----|-----3---|

     last chorus is the same until the last line

     
     
       G|-------|-----4--|-2~-----|--------|--------|
       D|-2-----|--------|--2~----|--------|------1-|
       A|---0-xx|-2------|----2~--|22222222|-3-2----|
       E|--0----|--------|------2~|--------|-----3--|
     

       G|-------|-------4|-2~-----|--------|--------|
       D|-2-----|--------|--2~----|--------|------1-|
       A|---0-xx|-2------|----2~--|22222222|-3-2----|
       E|--0----|--------|------2~|--------|-----3--|

          whhoooaaah            whhoooaahh
       G|-----------|---------|--------|---------|
       D|-----------|-------1-|--------|-------1-|
       A|-3~--------|-3-2-----|-2~-----|-3-2-----|
       E|-----------|-----3---|--------|-----3---|  then straight into

       G|-------|-------|-------|-----------|
       D|-2-----|-------|-------|-------1-2-|
       A|-----3-|-2-----|-2---3-|-3-2-------|
       E|---3---|---3-0-|---3---|-----3-----|


    And thats it ;) have fun playing and i hope it sounds good cz this is my first submission haha
            
Submit corrections

comments powered by Disqus
↑ Back to top | Sonic Boom Six Bass for Meanwhile Back In The Real World. Lyrics for acoustic guitar and electric guitar. 1 Tablatures and chords are parodies/interpretations of the original songs. You may use it for private study, scholarship, research or language learning purposes only