>
 >
Captain

Captain Guitar Tabs

Something For Kate - Captain chords, tabs, tablatures, lyrics

Guitar lessons | Add/correct | Request | Top 50 tabs Artists:  A B C D E F G H I J K L M N O P Q R S T U V W X Y Z 0-9

Captain Guitar Tabs – Something For Kate

CD, Sheet music, Poster

Do you like Captain? Share with your friends now
TabsTabs v2

BAND:        Something For Kate


INTRO:
------

E|------------------------------------------------|
B|--M--M--M--M--M--M--M--M--M---------------------|
G|--9--9--9--9--9--9--9--9--9------/--13--13--13--|
D|------------------------------------------------|
A|--7--7--7--7--7--7--7--7--7------/--11--11--11--|
E|--0--0--0--0--0--0--0--0--0---------0---0---0---|

E|------------------------------------------------|
B|--M--M--M--M--M--M--M--M--M---------------------|
G|--9--9--9--9--9--9--9--9--9------/--14--14--14--|
D|------------------------------------------------|
A|--7--7--7--7--7--7--7--7--7------/--12--12--12--|
E|--0--0--0--0--0--0--0--0--0---------0---0---0---|

E|------------------------------------------------|
B|--M--M--M--M--M--M--M--M--M---------------------|
G|--9--9--9--9--9--9--9--9--9------/--13--13--13--|
D|------------------------------------------------|
A|--7--7--7--7--7--7--7--7--7------/--11--11--11--|
E|--0--0--0--0--0--0--0--0--0---------0---0---0---|

E|------------------------------------------------------------------|
B|--M--M--M--M--M--M--M--M--M---------------------------------------|
G|--9--9--9--9--9--9--9--9--9----/--14--13--14--13--14--13--14--13--|
D|------------------------------------------------------------------|
A|--7--7--7--7--7--7--7--7--7----/--12--12--12--12--12--12--12--12--|
E|--0--0--0--0--0--0--0--0--0-------0---0---0---0---0---0---0---0---|



VERSE:
------

E|-----------------------------------------------------------------------------------------|
B|-----------------------------------------------------------------------------------------|
G|-----------------------------------------------------------------------------------------|
D|--X--2--2--2-----2--2--2--2-----4--4--4--4-----X--2--2--2-----2--2--2--2-----6--6--6--6--|
A|--X--2--2--2-----4--4--4--4-----6--6--6--6-----X--2--2--2-----4--4--4--4-----7--7--7--7--|
E|--X--0--0--0-----2--2--2--2-----4--4--4--4-----X--0--0--0-----2--2--2--2-----5--5--5--5--|



CHORUS:
-------

E|------------------------------------------------------------|
B|------------------------------------------------------------|
G|------------------------------------------------------------|
D|---9-----------9------13--------7------------2-------4------|
A|---9-----------11-----11--------7------------2-------4------|
E|---7-----------9------9---------5------------0-------2------|



POST-CHORUS:
------------

E|---------------------------------------------|
B|---------------------------------------------|
G|--4---/---6---/---8------4---/---6---/---9---|
D|---------------------------------------------|
A|--2---/---4---/---6------4---/---6---/---7---|
E|---------------------------------------------|



VERSE: - Leave out the muted strings part. Slide between chords.
------



CHORUS:
-------

E|--------------------------------------------------------------------------------------|
B|--------------------------------------------------------------------------------------|
G|--8-------6---6---9---9---6--6---9--9---6-6--9-9-----8------13--/--14----13-----11--|
D|--9-------7---7---9---9---6--6---9--9---6-6--9-9-----9--------------------------------|
A|--9-------7---7---9---9---7--7---9--9---7-7--9-9-----9------11--/--12----11-----9---|
E|--7--------------------------------------------------7------0------0------0-------0---|

E|--------------------------------------------------------------------------------------|
B|--------------------------------------------------------------------------------------|
G|--6---6---9---9---6--6---9--9---6-6--9-9-----8--------13----11----9----8-----------|
D|--7---7---9---9---6--6---9--9---6-6--9-9-----9----------------------------------------|
A|--7---7---9---9---7--7---9--9---7-7--9-9-----9--------11----9-----7----6-----------|
E|---------------------------------------------7--------0------0------0-----0-----------|

E|--------------------------------------------------------------------------------------|
B|--------------------------------------------------------------------------------------|
G|--6---6---9---9---6--6---9--9---6-6--9-9-----8--------13--/--14--/--16----14----13--|
D|--7---7---9---9---6--6---9--9---6-6--9-9-----9----------------------------------------|
A|--7---7---9---9---7--7---9--9---7-7--9-9-----9--------11--/--12--/--14----12----11--|
E|---------------------------------------------7--------0------0------0------0------0---|

E|-------------------------------|
B|-------------------------------|
G|---6--6----9--9---/-----14-----|
D|---7--7----9--9---/-----14-----|
A|---7--7----9--9---/-----14-----|
E|-------------------------------|



POST-CHORUS:
------------

E|--------------------------------------------------------------|
B|----------------2---------------------------------------------|
G|----------------2---------------------9--8--9--8--9--8--9--8--|
D|--2------4------2-----2------4--------7--7--7--7--7--7--7--7--|
A|--2------4------------2------4--------7--7--7--7--7--7--7--7--|
E|--0------2------------0------2--------------------------------|

E|--------------------------------------------------------------|
B|----------------2---------------------------------------------|
G|----------------2---------------------9--8--9--8--9-11--9--8--|
D|--2------4------2-----2------4--------7--7--7--7--7--7--7--7--|
A|--2------4------------2------4--------7--7--7--7--7--7--7--7--|
E|--0------2------------0------2--------------------------------|

E|--------------------------------------------------------------|
B|----------------2---------------------------------------------|
G|----------------2----------------------2--2--2--2--2--2--2--2-|
D|--2------4------2-----2------4---------2--1--2--1--2--1--2--1-|
A|--2------4------------2------4--------------------------------|
E|--0------2------------0------2--------------------------------|



BRIDGE: - "It's just a model..."
-------

E|----------------------------------------------------------|
B|-------------------5--------2-----------------------------|
G|-----4-------6-----6--------2-----------------------------|
D|-----4-------6-----6--------2--------2------4-------------|
A|-----2-------4-----4-----------------2------4-------------|
E|-------------------------------------0------2-------------|



END:
----

E|--------------------------------------|
B|----------------2---------------------|
G|----4-----------2-----------1---------|
D|----4-----------2-----------2---------|
A|----2-----------------------2---------|
E|----------------------------0---------|





Comments


Popular Something For Kate tabs & chords
Jerry Stand Up Bass Tabs
Seasick Bass Tabs
Anarchitect Tabs
Deep Sea Divers Tabs
Photograph Tabs
Three Dimensions 1 Tabs
White Tabs
White 2 Tabs
You Only Hide 1 Tabs
Deja Vu Ukulele


Song lyrics



↑ Back to top | Tablatures and chords are parodies/interpretations of the original songs. You may use it for private study, scholarship, research or language learning purposes only
© 2014 AZChords.com Contact us | Privacy policy | DMCA | Add/correct tabs | Request tabs | Top 50 tabs