» » »

Someone Still Loves You Boris Yeltsin, The Beach Song Chords (ver.1)

Artists:  A B C D E F G H I J K L M N O P Q R S T U V W X Y Z # 

The Beach Song Chords (ver.1)

Someone Still Loves You Boris Yeltsin Tabs
Rating:
0/5 (0 votes)
The Beach Song lessons Tabs too difficult? Try these video lessons and learn fast
                chords:
here are the chord shapes if you don't know just standard barre chords
C#
e|-----------|
B|--6--------|
G|--6--------|
D|--6--------|
A|--4--------|
E|-----------|

F#
e|--2--------|
B|--2--------|
G|--3--------|
D|--4--------|
A|--4--------|
E|--2--------|


Ab
e|--4--------|
B|--4--------|
G|--5--------|
D|--6--------|
A|--6--------|
E|--4--------|

B
e|--7--------|
B|--7--------|
G|--8--------|
D|--9--------|
A|--9--------|
E|--7--------|




intro
e|---444444--2222--11111--22222------------------|
B|---555555--3333--33333--33333------------------|
G|-----------------------------------------------|
D|-----------------------------------------------|
A|-----------------------------------------------|
E|-----------------------------------------------|

at the last bar of the intro just strum the first 5/4 note

verse

i don't have the lyrics because the cd just leaked

C#        F#         Ab     (G#-F#)*    repeat


*the G#-F# is just those two chords played quickly as a sort of walk down

bridge thing

B         F#           repeat

on the last bar play:

B         C#

then back to the verse

C#        F#         Ab     (G#-F#)*    repeat

now to the chorus thing

F#       C#        Ab      C#      repeat


the first  F#  in this sounds higher because one guitar is playing it up an octave

the shape for that F# is

B
e|----------|
B|--11------|
G|--11------|
D|--11------|
A|--9-------|
E|----------|

and now again back to the verse

C#        F#         Ab     (G#-F#)*    repeat
            

comments powered by Disqus
↑ Back to top | Someone Still Loves You Boris Yeltsin Chords for The Beach Song. Lyrics for acoustic guitar and electric guitar. Tablatures and chords are parodies/interpretations of the original songs. You may use it for private study, scholarship, research or language learning purposes only