>
 >
You Dont Know Me

You Dont Know Me Chords

Soja - You Dont Know Me chords, tabs, tablatures, lyrics

Guitar lessons | Add/correct | Request | Top 50 tabs Artists:  A B C D E F G H I J K L M N O P Q R S T U V W X Y Z 0-9

You Dont Know Me Chords – Soja

CD, Sheet music, Poster

Do you like You Dont Know Me? Share with your friends now
ChordsTabsUkulele
Intro (piano)

e|-----------||---------10||-10-14-12-10-12-8--||-----------|
B|-12-12-10--||-12-12-10--||-------------------||-----------|
G|-----------||-----------||-------------------||-----------|
D|-----------||-----------||-------------------||-----------| x2
A|-----------||-----------||-------------------||-----------|
E|-----------||-----------||-------------------||-----------|

e|-15-15-14-12-||-15-15-14-12-||-15-15-14-12-14-10-||-----------|
B|-------------||-------------||-------------------||-----------|
G|-------------||-------------||-------------------||-----------| x2
D|-------------||-------------||-------------------||-----------|
A|-------------||-------------||-------------------||-----------|
E|-------------||-------------||-------------------||-----------|


Chords (repeated through the whole song):  Em - C - G  D

	     Em		C	    G 	     D      	
e	-----------|----------|----------|-----------|-----|
B	----8------|----------|----------|----7------|-----|
G	----9------|----9-----|-----4 ---|----7------|-----|
D	----9------|----10----| ----5----|----7------|-----|
A	----7------|----10 ---|-----5----|----5------|-----|
E   	-----------|----8-----|-----3----|-----------|-----|


Well, I had one by my side,
but she only tried to get near me.
And never ever knowing about my inside..
But one that I hold is worth so much 
more to me if it's both body and mind.

CHORUS:
You think I'm alone when everyone's around,
You think I'm home but I'm really out.
You think I'm out but I'm really at home and it seems
that you don't know me no more.

Girl you don't know me no more, this love is real to me.
To make you happy and secure that's what's important to me.
And any tie you're not around, i want you here with me,
Cuz girl, you really appeal to me...
But I see a serious lack of communication,
Ask you for a meal, say you want to bring me chicken -
Like you don't know that I'm a vegetarian.
Is this a love or an infatuation cuz

You think I'm alone but everyone's around
You think I'm home when I'm really out
You think I'm out but I'm really at home and it seems
that you don't know me no more.
You think I'm alone but everyone's around
You think I'm home when I'm really out
You think I'm out but I'm really at home and it seems
that you don't know me no more.

All that I've learned is all I'm taking now with me,
Never will I wait for too long again.
You can take all old roses with you cuz
I've got new gardens I must grow.
Think I'm alone everyone is around
And girl you can't hold me no more, cuz I got places to go
and anywhere that I go I got people I know.
I wanna see you everyday knocking at my door, but
first, I really wanna let you know that...
This is a troubled world that we live on,
And the almighty creator put me on a mission,
So you can walk with me on this path trough creation,
And we can help each other reveal our visions.
You think I'm alone but everyone's around
You think I'm home when I'm really out
You think I'm out but I'm really at home and it seems
that you don't know me no more.
Think I'm alone, everyone is around





Comments


Popular Soja tabs & chords
Losing My Mind Chords
Not Done Yet Chords
Rasta Courage Chords
Everything Changes Tabs
Not Done Yet Tabs
Strength To Survive 3 Tabs
Everything Changes Ukulele
Rasta Courage Ukulele
Used To Matter Ukulele
You Dont Know Me Ukulele


Song lyrics



↑ Back to top | Tablatures and chords are parodies/interpretations of the original songs. You may use it for private study, scholarship, research or language learning purposes only
© 2014 AZChords.com Contact us | Privacy policy | DMCA | Add/correct tabs | Request tabs | Top 50 tabs