» » »

Soda Stereo, En La Ciudad De La Furia Tabs (ver.1)

Artists:  A B C D E F G H I J K L M N O P Q R S T U V W X Y Z # 

En La Ciudad De La Furia Tabs (ver.1)

Soda Stereo Tabs
Rating:
0/5 (0 votes)
En La Ciudad De La Furia lessons Tabs too difficult? Try these video lessons and learn fast
                Armonizado en Re mayor
Tempo 4/4
Beat 125 rpm

Efectos naturales

b, bend, jalar la cuerda hacia arriba para subir el tono.
   14b16, tocas en traste catorce y subes un tono (traste 16)

/ o \, slide, tocas nota y deslizas el dedo hacia otra (9/7)
   tocas 9 y deslizas hacia 7.

p, pull off, tocas una nota, luego sueltas hacia otra (9p7)
   tocas en 9, sueltas hacia el 7.

< >, armónico natural, pulsas ligeramente la cuerda, sin apretar
     completamente el traste, provocando un sonido muy agudo

~, vibrato, Cerati usa generalmente este efecto mediante su trémolo

x, mute, al rasguear "apagas" el sonido levantando la mano izquierda
   (o la derecha si eres zurdo) para que toque ligeramente las cuerdas

( ), sostener la duración de la nota al siguiente compás

P.M., palm mute, encimas la mano que rasguea sobre las cuerdas para
      "apagar" el sonido


  INTRO

 Cadd9  G/B
|-----|--3--|---5----5----5----5----5----7----7----7----10---9-|
|--3--|--3--|--8----8----8----8----8----8----8----8----8----8--|
|--0--|--0--|-9----9----9----9----9----9----9----9----9----9---|
|--2--|--0--|--------------------------------------------------|
|--3--|--2--|--------------------------------------------------|
|-----|-----|--------------------------------------------------|


|| -- 5----5----5----5----5- ||  |---7----7----7----10---9-|
|| --8----8----8----8----8-- ||  |--8----8----8----8----8--|
||O-9----9----9----9----9---O||  |-9----9----9----9----9---|
||O-------------------------O||  |-------------------------|
|| ------------------------- ||  |-------------------------|
|| ------------------------- ||x2|-------------------------|


|---10---10---10---10---10-----|
|--8----8----8----8----8-------|
|-9----9----9----9----9--------|
|------------------------------|
|------------------------------|
|--------------------------12\-|


|| ----------|--------------|----------|--------------|
|| -------3--|-----3------2-|-------3--|-----3------2-|
||O-------0--|-----0------2-|-------0--|-----0------2-|
||O-----0----|---0------2---|-----0----|---0------2---|
|| ---2------|--------0-----|---2------|--------0-----|
|| -0--------|-3------------|-0--------|-3------------|


|-------2--|---2-3-2-0----|-------2--|---2-3-2-0----- ||
|-----3----|-3-------2--2-|-----3----|-3-------2--2-- ||
|---0------|------------2-|---0------|------------2--o||
|----------|--------------|----------|---------------o||
|----------|--------------|----------|--------------- ||
|-3--------|--------------|-3--------|--------------- ||X2



  VERSO I (sin guitarra)


Me verás volar

Por la ciudad de la furia

Donde nadie sabe de mí

Y yo soy parte de todo



  VERSO II (entra guitarra)

      Em7        G      A         Em7          G      A
|--------------|---------------|-------------|---------------|
|--------------|------------2--|-------------|------------2--|
|--------------|------------2--|-------------|------------2--|
|----------0---|-----0----2----|---------0---|-----0----2----|
|--------2-----|---2----0------|-------2-----|---2----0------|
|-----0--------|-3-------------|--0----------|-3-------------|
 Nada cambiará con un aviso de    curva

  G                      A       G                            A
|-------------|----------------|------------------|-----------------|
|-------------|--------------2-|------------------|---------------2-|
|---------0---|-(0)----------2-|------------0-----|-(0)-----------2-|
|-----0-------|------------2---|-------0----------|-------------2---|
|---2---------|----------0-----|----2-------------|-----------0-----|
|-3-----------|----------------|-3----------------|-----------------|
 En sus caras veo el temor       ya no hay fábulas en la ciudad de la


        Em7     G      A        Em7  G  A
 Nada cambiará con un aviso de curva
 G            A
 En sus caras veo el temor
 G
 Ya no hay fábulas
 A
 En la ciudad de la furia



  INTERLUDIO

|| -7-x-7-x-7--77777-x-|-7-x-7-x-7-7--7-x-7-- ||
|| -7-x-7-x-7--77777-x-|-8-x-8-x-8-7--7-x-7-- ||
||O-7-x-7-x-7--77777-x-|-7-x-7-x-7-7--9-x-9--O||
||O-9-x-9-x-9--99999-x-|-9-x-9-x-9-9--9-x-9--O||
|| --------------------|--------------------- ||
|| --------------------|--------------------- ||x4
  furia



  PRE-CORO

|| ---------------|----------------- ||
|| ---3----3----3-|---3---3---3---3- ||
||O------0----0---|-----0-------2---O||
||O---------------|-----------------O||
|| ---------------|---------0------- ||
|| -0-------------|-3--------------- ||x2
 Me verás caer    como un ave de presa


|| ---------------|------------------- ||
|| ---3----3----3-|-(3)-3---3---3---3- ||
||O------0----0---|-------0-------2---O||
||O---------------|-------------------O||
|| ---------------|-----------0------- ||
|| -0-------------|------------------- ||x2
 Me verás caer   sobre terrazas desiertas


|| ---------0------|----------------- ||
|| ---3---3------3-|---3---3---3---3- ||
||O-----0------0---|-----0-------2---O||
||O----------------|-----------------O||
|| ----------------|---------0------- ||
|| -0--------------|-3--------------- ||x2
   Te desnudaré   por las calles azules


|| ---------2------|------------------- ||
|| ---3---3------3-|-(3)-3---3---3---3- ||
||o-----0------0---|-------0-------2---o||
||o----------------|-------------------o||
|| ----------------|-----------0------- ||
|| -0--------------|------------------- ||x2
  Me refugiaré  Antes que todos despierten


  
  CORO

    Bm                D       G
|| -2-2-2-2-2-2-2-2-|-2-2-2-2---------|
|| -3-3-3-3-3-3-3-3-|-3-3-3-3-3-3-3-3-|
||o-4-4-4-4-4-4-4-4-|-2-2-2-2-0-0-0-0-|
||o-4-4-4-4-4-4-4-4-|-4-4-4-4-0-0-0-0-|
|| -2-2-2-2-2-2-2-2-|-5-5-5-5-2-2-2-2-|
|| -----------------|---------3-3-3-3-|
             Me dejarás       dormir
           Sabrás  ocultarme  bien y

  Bm                D       G
|-2-2-2-2-2-2-2-2-|-2-2-2-2---------|
|-3-3-3-3-3-3-3-3-|-3-3-3-3-3-3-3-3-|
|-4-4-4-4-4-4-4-4-|-2-2-2-2-0-0-0-0-|
|-4-4-4-4-4-4-4-4-|-2-2-2-2-0-0-0-0-|
|-2-2-2-2-2-2-2-2-|-5-5-5-5-2-2-2-2-|
|-----------------|---------3-3-3-3-|
  al amanecer               Entre tus
  desaparecer               Entre la

  A                 G                 A                
|-0-0-0-0-0-0-0-0-|-----------------|-0-0-0-0-0-0-0-0-|
|-2-2-2-2-2-2-2-2-|-3-3-3-3-3-3-3-3-|-2-2-2-2-2-2-2-2-|
|-2-2-2-2-2-2-2-2-|-0-0-0-0-0-0-0-0-|-2-2-2-2-2-2-2-2-|
|-2-2-2-2-2-2-2-2-|-0-0-0-0-0-0-0-0-|-2-2-2-2-2-2-2-2-|
|-0-0-0-0-0-0-0-0-|-2-2-2-2-2-2-2-2-|-0-0-0-0-0-0-0-0-|
|-----------------|-3-3-3-3-3-3-3-3-|-----------------|
  piernas                  Entre tus piernas
  niebla                   Entre la  niebla

  F#m                   Cadd9       G
 __________________     ____
|1.                    |2.
|----------------- ||  |----------|-----|
|-2-2-2-2-2-2-2-2- ||  |--3-------|-3---|
|-2-2-2-2-2-2-2-2-O||  |--0-------|-0---|
|-4-4-4-4-4-4-4-4-O||  |--2-------|-0---|
|-4-4-4-4-4-4-4-4- ||  |--3-------|-2---|
|-2-2-2-2-2-2-2-2- ||x2|----------|-----|
                       Un hombre alado


 Bm     D      G        Bm     D
 Me dejarás dormir al amanecer
 G         A        G         A       F#m
 Entre tus piernas, entre tus piernas
 Bm          D    G          Bm      D
 Sabrás ocultarme bien y desaparecer
 G        A       G        A
 Entre la niebla, entre la niebla
 Cadd9      G
 Un hombre alado, extraña la tierra


  INTERLUDIO

|---5----5----5----5----5----7----7----7----7-----|
|--8----8----8----8----8----8----8----8----8------|
|-9----9----9----9----9----9----9----9----9-------|
|-------------------------------------------------|
|-------------------------------------------------|
|---------------------------------------------12\-|
  Extraña la tierra



  VERSOS III & IV

      Em7          G      A         Em7          G      A
|| --------------|---------------|-------------|---------------|
|| --------------|------------2--|-------------|------------2--|
||O--------------|------------2--|-------------|------------2--|
||O----------0---|-----0----2----|---------0---|-----0----2----|
|| --------2-----|---2----0------|-------2-----|---2----0------|
|| -----0--------|-3-------------|--0----------|-3-------------|
    Me verás volar por la ciudad de la furia
    Con la luz del sol       Se derriten mis alas


  G                      A       G                            A
|-------------|----------------|------------------|----------------- ||
|-------------|--------------2-|------------------|---------------2- ||
|---------0---|-(0)----------2-|------------0-----|-(0)-----------2-O||
|-----0-------|------------2---|-------0----------|-------------2---O||
|---2---------|----------0-----|----2-------------|-----------0----- ||
|-3-----------|----------------|-3----------------|----------------- ||x2
  Donde nadie sabe de mi         Y yo soy         parte de todo
  En sus caras   veo el temor    Ya no hay fábulas en la ciudad de la

    Em7    G    A                     Em7 G A
 Me verás volar por la ciudad de la furia
 G           A
 Donde nadie sabe de mi
 G           A
 Y yo no soy parte de todo

        Em7          G      A         Em7 G A
 Con la luz del sol, se derriten mis alas
 G            A
 En sus caras veo el temor
 G                 A
 Ya no hay fábulas

 En la ciudad de la furia



  INTERLUDIO

|| -7-x-7-x-7--77777-x-|-7-x-7-x-7-7--7-x-7-- ||
|| -7-x-7-x-7--77777-x-|-8-x-8-x-8-7--7-x-7-- ||
||O-7-x-7-x-7--77777-x-|-7-x-7-x-7-7--9-x-9--O||
||O-9-x-9-x-9--99999-x-|-9-x-9-x-9-9--9-x-9--O||
|| --------------------|--------------------- ||
|| --------------------|--------------------- ||x4
  furia



  PRE-CORO

|| ---------------|----------------- ||
|| ---3----3----3-|---3---3---3---3- ||
||O------0----0---|-----0-------2---O||
||O---------------|-----------------O||
|| ---------------|---------0------- ||
|| -0-------------|-3--------------- ||x2
 Me verás caer    como una flecha salvaje


|| ---------------|------------------- ||
|| ---3----3----3-|-(3)-3---3---3---3- ||
||O------0----0---|-------0-------2---O||
||O---------------|-------------------O||
|| ---------------|-----------0------- ||
|| -0-------------|------------------- ||x2
  Me verás caer   entre vuelos fugaces


|| ---------0------|----------------- ||
|| ---3---3------3-|---3---3---3---3- ||
||O-----0------0---|-----0-------2---O||
||O----------------|-----------------O||
|| ----------------|---------0------- ||
|| -0--------------|-3--------------- ||x2
   Buenos Aires se ve tan susceptible


|| ---------2------|------------------- ||
|| ---3---3------3-|-(3)-3---3---3---3- ||
||o-----0------0---|-------0-------2---o||
||o----------------|-------------------o||
|| ----------------|-----------0------- ||
|| -0--------------|------------------- ||x2
  Ese destino de furia es lo que sus caras persiste



  CORO

    Bm                D       G
|| -2-2-2-2-2-2-2-2-|-2-2-2-2---------|
|| -3-3-3-3-3-3-3-3-|-3-3-3-3-3-3-3-3-|
||o-4-4-4-4-4-4-4-4-|-2-2-2-2-0-0-0-0-|
||o-4-4-4-4-4-4-4-4-|-4-4-4-4-0-0-0-0-|
|| -2-2-2-2-2-2-2-2-|-5-5-5-5-2-2-2-2-|
|| -----------------|---------3-3-3-3-|
             Me dejarás       dormir
           Sabrás  ocultarme  bien y

  Bm                D       G
|-2-2-2-2-2-2-2-2-|-2-2-2-2---------|
|-3-3-3-3-3-3-3-3-|-3-3-3-3-3-3-3-3-|
|-4-4-4-4-4-4-4-4-|-2-2-2-2-0-0-0-0-|
|-4-4-4-4-4-4-4-4-|-2-2-2-2-0-0-0-0-|
|-2-2-2-2-2-2-2-2-|-5-5-5-5-2-2-2-2-|
|-----------------|---------3-3-3-3-|
  al amanecer               Entre tus
  desaparecer               Entre la

  A                 G                 A                
|-0-0-0-0-0-0-0-0-|-----------------|-0-0-0-0-0-0-0-0-|
|-2-2-2-2-2-2-2-2-|-3-3-3-3-3-3-3-3-|-2-2-2-2-2-2-2-2-|
|-2-2-2-2-2-2-2-2-|-0-0-0-0-0-0-0-0-|-2-2-2-2-2-2-2-2-|
|-2-2-2-2-2-2-2-2-|-0-0-0-0-0-0-0-0-|-2-2-2-2-2-2-2-2-|
|-0-0-0-0-0-0-0-0-|-2-2-2-2-2-2-2-2-|-0-0-0-0-0-0-0-0-|
|-----------------|-3-3-3-3-3-3-3-3-|-----------------|
  piernas                  Entre tus piernas
  niebla                   Entre la  niebla

  F#m                   Cadd9       G
 __________________     ____
|1.                    |2.
|----------------- ||  |----------|-----|
|-2-2-2-2-2-2-2-2- ||  |--3-------|-3---|
|-2-2-2-2-2-2-2-2-O||  |--0-------|-0---|
|-4-4-4-4-4-4-4-4-O||  |--2-------|-0---|
|-4-4-4-4-4-4-4-4- ||  |--3-------|-2---|
|-2-2-2-2-2-2-2-2- ||x2|----------|-----|
                       Un hombre alado


 Bm     D      G        Bm     D
 Me dejarás dormir al amanecer
 G         A        G         A       F#m
 Entre tus piernas, entre tus piernas
 Bm          D    G          Bm      D
 Sabrás ocultarme bien y desaparecer
 G        A       G        A
 Entre la niebla, entre la niebla
 Cadd9      G
 Un hombre alado, extraña la tierra



  INTERLUDIO

|| ---5----5----5----5----5----5----5----5----5---5-- ||
|| --8----8----8----8----8----8----8----8----8---8--- ||
||O-9----9----9----9----9----9----9----9----9---9----O||
||O--------------------------------------------------O||
|| -------------------------------------------------- ||
|| -------------------------------------------------- ||x2
  Extraña la noche



  SOLO & OUTRO

se toca entre brazo y pastilla 
|-<24>-(24)~~~~~|~(24)~~----------|-12-(12)~~~~|~(12)~~~~~|
|-<24>-(24)~~~~~|~(24)~~------2/--|-12-(12)~~~~|~(12)~~~~~|
|---------------|-------------2/--|------------|----------|
|---------------|-------------2/--|------------|----------|
|---------------|-----------------|------------|----------|
|---------------|--------12\------|------------|----------|


                                                    P.M.
|------------|-14-15-14----------------|-----------|------|-<12>-(12)~~|
|------------|----------15-------------|-----------|------|-<12>-(12)~~|
|-<5>-(5)~~~~|-------------14-12-11-12-|-14b16~~~~~|-0~~~~|------------|
|-<5>-(5)~~~~|-------------------------|-----------|-0~~~~|------------|
|------------|-------------------------|-----------|-0~~~~|------------|
|------------|-------------------------|-----------|-0~~~~|------------|


|~(12)--12X12----------|-----------|--------|-<24>-(24)~~~~|
|~(12)--12X12----------|-----------|--------|-<24>-(24)~~~~|
|--------------X-X-X-X-|-<5>-(5)~~~|~(5)~~~~|--------------|
|--------------X-X-X-X-|-<5>-(5)~~~|~(5)~~~~|--------------|
|----------------------|-----------|--------|--------------|
|----------------------|-----------|--------|--------------|


|~(24)~~--------|-12~~~~~|~(12)~~-12\-----17-|------------------|
|~(24)~~----2/--|-12~~~~~|~(12)~~-12\--2/----|-17---17----17----|
|-----------2/--|--------|-------------2/----|---16----16----16-|
|-----------2/--|--------|-------------2/----|------------------|
|---------------|--------|-------------------|------------------|
|-------12\-----|--------|-------------------|------------------|


|-------------------|----------------------|-------------------|
|-15--15--14--10/12-|/17-----17------17----|-15--15--14--10/12-|
|---16--------------|----16------16-----16-|---16--------------|
|-------------------|----------------------|-------------------|
|-------------------|----------------------|-------------------|
|-------------------|----------------------|-------------------|


|-14---14---14--|-14/17--17--17\14-|-(14)-14---14-|-10-7---------|
|-12---12---12--|-12/15--15--15\12-|-(12)-12---12-|-----10-7-----|
|---------------|------------------|--------------|---------9-7--|
|---------------|------------------|--------------|------------9-|
|---------------|------------------|--------------|--------------|
|---------------|------------------|--------------|--------------|

 
                       fade
|----------------|----|----------------|----|-----------------|----|
|-10~~--8~~~--7--|----|-10~~--8~~~--7--|----|--10~~--8~~~--7--|----|
|----------------|-7--|----------------|-9--|-----------------|-7--|
|----------------|----|----------------|----|-----------------|----|
|----------------|----|----------------|----|-----------------|----|
|----------------|----|---------------------|-----------------|----|


|-------------------|
|-15--14-----22~~~~~|
|--------14/--------|
|-------------------|
|-------------------|
|-------------------|

Aquí la interpretación:
            

comments powered by Disqus
↑ Back to top | Soda Stereo Tabs for En La Ciudad De La Furia. Lyrics for acoustic guitar and electric guitar. Tablatures and chords are parodies/interpretations of the original songs. You may use it for private study, scholarship, research or language learning purposes only