» » »

S.O.D., Sargent 'd' Of The S.O.D. Bass tabs (ver.1)

Artists:  A B C D E F G H I J K L M N O P Q R S T U V W X Y Z # 

Sargent 'd' Of The S.O.D. Bass tabs (ver.1)

S.O.D. Tabs
 Rating:
4/5 (4 votes)
Sargent 'd' Of The S.O.D. lessons Tabs too difficult? Try these video lessons and learn fast
1
                #------------Created with Taborama Tab Creator-----------------#


Instrument: 4 String Bass


Tuning: Dropped D (D A D G)

With Lots of Distortion

Intro
Main Riff
|---------------------------------||
|---------------------------------||
|---------------------------------||X4 on its own
|-0-2-0-3-0-2-0-3-0-0-0-0--6--5---||

|---------------------------------||
|---------------------------------||
|---------------------------------||X8 With the rest of the band
|-0-2-0-3-0-2-0-3-0-0-0-0--6--5---||


Chorus
|----------|----------|-------------||
|----------|----------|-------------||
|----------|----------|-------------||X2
|-5--------|----------|-3--8--6--5--||

|----------|----------|-------------||
|----------|----------|-------------||
|----------|----------|-------------||X2
|-55555555-|-66666666-|-3--8--6--5--||

Verse
|---------------------------------||
|---------------------------------||
|---------------------------------||X6
|-0-2-0-3-0-2-0-3-0-0-0-0--6--5---||

Chorus
|----------|----------|-------------||
|----------|----------|-------------||
|----------|----------|-------------||X2
|-5--------|----------|-3--8--6--5--||

|----------|----------|-------------||
|----------|----------|-------------||
|----------|----------|-------------||X2
|-55555555-|-66666666-|-3--8--6--5--||

Interlude
|----------------|----------------|
|----------------|----------------|
|----------------|----------------|X4 Normal Speed
|-0-0--2/3-6\5-5-|-0-0--2/3-5/6-6-|

|----------------|----------------|
|----------------|----------------|
|----------------|----------------|X4 Increasing Speed
|-0-0--2/3-6\5-5-|-0-0--2/3-5/6-6-|

|----------------|----------------|
|----------------|----------------|
|----------------|----------------|X4 Very Fast
|-0-0--2/3-6\5-5-|-0-0--2/3-5/6-6-|

Verse
|---------------------------------||
|---------------------------------||
|---------------------------------||X6
|-0-2-0-3-0-2-0-3-0-0-0-0--6--5---||

Last Chorus
|----------|----------|-------------||
|----------|----------|-------------||
|----------|----------|-------------||X2
|-5--------|----------|-3--8--6--5--||


|----------|----------|-------------||
|----------|----------|-------------||
|----------|----------|-------------||X2
|-55555555-|-66666666-|-3--8--6--5--||

|----------------||
|----------------||
|----------------||
|-5///17---------||

End
|---------------|------
|---------------|------
|---------------|------
|-0-0-2/3-6\5-5-|-0----
            
Submit corrections

comments powered by Disqus
↑ Back to top | S.O.D. Bass for Sargent 'd' Of The S.O.D.. Lyrics for acoustic guitar and electric guitar. 1 Tablatures and chords are parodies/interpretations of the original songs. You may use it for private study, scholarship, research or language learning purposes only