>
 >
Kill The Assholes

Kill The Assholes Guitar Tabs

S.O.D. - Kill The Assholes chords, tabs, tablatures, lyrics

Guitar lessons | Add/correct | Request | Top 50 tabs Artists:  A B C D E F G H I J K L M N O P Q R S T U V W X Y Z 0-9

Kill The Assholes Guitar Tabs – S.O.D.

CD, Sheet music, Poster

Do you like Kill The Assholes? Share with your friends now
Tabs
kill the assholes


any questions or corrections-e-mail me

tune down 1/2 step

Intro 

   riff 1 - 4 times
Eb:|-----------------------|
Bb:|-----------------------|
Gb:|-----------------------|
Db:|--------6-6-6----------|
Ab:|--5-5-5-4-4-4-2-(2)----|
Eb:|--3-3-3-------0-(0)----|

   riff 2
Eb:|----------------------------------------------------------|
Bb:|----------------------------------------------------------|
Gb:|----------------------------------------------------------|
Db:|-7\9-/-7\9-9-/-7\9-/-7\9-9-/-7\9-/-7\9-9------------------|
Ab:|-5\7-/-5\7-7-/-5\7-/-5\7-7-/-5\7-/-5\7-7-6\7-7-7\8-8-8----|
Eb:|-----------------------------------------4\5-5-5\6-6-6----|

Eb:|----------------------------------------------------------|
Bb:|----------------------------------------------------------|
Gb:|----------------------------------------------------------|
Db:|-7\9-/-7\9-9-/-7\9-/-7\9-9-/-7\9-/-7\9-9------------------|
Ab:|-5\7-/-5\7-7-/-5\7-/-5\7-7-/-5\7-/-5\7-7-6\7-7-7\8--------|
Eb:|-----------------------------------------4\5-5-5\6--------|
                                                     .
Verse 1 - assholes and opinions...

riff 3 ( 2 times)
            3 times                             1 time
Eb:|-----------------------------|----------------------------|
Bb:|-----------------------------|----------------------------|
Gb:|-----------------------------|----------------------------|
Db:|-7\9-/-7\9-9-----------------|-7\9-/-7\9-9-/-7\9-/-7\9-9--|
Ab:|-5\7-/-5\7-7--6\7-7-7\8-8-8--|-5\7-/-5\7-7-/-5\7-/-5\7-7--|
Eb:|--------------4\5-5-5\6-6-6--|----------------------------|

Chorus 1

    kill     kill     kill     kill the assholes
Eb:|--------------------------------------------|
Bb:|--------------------------------------------|
Gb:|--------------------------------------------|
Db:|-------6--------6--------6--3-3-3-3-4-4-4-4-|
Ab:|-8-8-6-4--8-8-6-4--8-8-6-4--1-1-1-1-2-2-2-2-|
Eb:|-6-6-4----6-6-4----6-6-4--------------------|


   kill      kill      kill      kill all the assholes
Eb:|---------------------------------------------------|
Bb:|---------------------------------------------------|
Gb:|---------------------------------------------------|
Db:|-------6--------6--------6--3--3--3--3--4--4--4--4-|
Ab:|-8-8-6-4--8-8-6-4--8-8-6-4--1--1--1--1--2--2--2--2-|
Eb:|-6-6-4----6-6-4----6-6-4---------------------------|

    kill     kill     kill     kill the assholes
Eb:|--------------------------------------------|
Bb:|--------------------------------------------|
Gb:|--------------------------------------------|
Db:|-------6--------6--------6--3-3-3-3-4-4-4-4-|
Ab:|-8-8-6-4--8-8-6-4--8-8-6-4--1-1-1-1-2-2-2-2-|
Eb:|-6-6-4----6-6-4----6-6-4--------------------|

    kill      kill      kill     
Eb:|---------------------------|
Bb:|---------------------------|
Gb:|---------------------------|
Db:|-------6--------6--------6-|
Ab:|-8-8-6-4--8-8-6-4--8-8-6-4-|
Eb:|-6-6-4----6-6-4----6-6-4---|

     we're gonna rise ...                              kill the assholes tonight
Eb:|----------------------------------------------------------------------------|
Bb:|----------------------------------------------------------------------------|
Gb:|----------------------------------------------------------------------------|
Db:|10-10-10-10--------10-10-10-10--------10-10-10-10--------10-10-10-------/-9-|
Ab:|-8--8--8--8-9-9-9-9-8--8--8--8-9-9-9-9-8--8--8--8-9-9-9-9-8--8--8-9-9-9-/-7-|
Eb:|------------7-7-7-7------------7-7-7-7------------7-7-7-7---------7-7-7-----|

back to riff 2
Verse 2  with riff 3 (2times)
Chorus 2 - it's the same as Chorus 1 

Outro
Eb:|-----------------------|
Bb:|-----------------------|
Gb:|-----------------------|
Db:|-----------------------|
Ab:|-2-(2)-----------------|
Eb:|-0-(0)------B-A-S-S----|

           3 times
Eb:|-----------------------|
Bb:|-----------------------|
Gb:|-----------------------|
Db:|--------6-6-6----------|
Ab:|--5-5-5-4-4-4-2-(2)----|
Eb:|--3-3-3-------0-(0)----|




     when the toilet is full 
     you flush down the waste
     and our toilet is full
     and is floating in space
Eb:|-----------------------------------|
Bb:|-----------------------------------|
Gb:|-----------------------------------|
Db:|----------6-6-6-6------------------|
Ab:|--5-5-5-5-4-4-4-4-5-5-5-5-2-2-2-2--|
Eb:|--3-3-3-3---------3-3-3-3-0-0-0-0--|


    we're human waste      floating in space     human waste
Eb:|--------------------------------------------|----------------|
Bb:|--------------------------------------------|----------------|
Gb:|--------------------------------------------|----------------|
Db:|--------------------------------------------|----------------|
Ab:|--5--5--5--5--2-(2)----5--5--5--5--2-(2)----|--5--5--2-------|
Eb:|--3--3--3--3--0-(0)----3--3--3--3--0-(0)----|--3--3--0-------|

end.





Comments


Popular S.O.D. tabs & chords
Ballad Of Phil H Tabs
Bigger Than The Devil Tabs
Black War Tabs
Douche Crew Tabs
Evil Is In Tabs
Freddy Krueger Tabs
Make Room, Make Room Tabs
March Of The Sod 1 Tabs
Seargent D And The Sod Tabs
Speak English Or Die 1 Tabs


Song lyrics



↑ Back to top | Tablatures and chords are parodies/interpretations of the original songs. You may use it for private study, scholarship, research or language learning purposes only
© 2014 AZChords.com Contact us | Privacy policy | DMCA | Add/correct tabs | Request tabs | Top 50 tabs