» » »

S.O.D., Fist Banging Mania Tabs (ver.1)

Artists:  A B C D E F G H I J K L M N O P Q R S T U V W X Y Z # 

Fist Banging Mania Tabs (ver.1)

S.O.D. Tabs
 Rating:
4/5 (4 votes)
Fist Banging Mania lessons Tabs too difficult? Try these video lessons and learn fast
1
                Band: S.O.D.

Riff 1

e:|----------| 
B:|----------| 
G:|----------| 
D:|----------| 
A:|-5-5-5-4--| 
E:|-3-3-3-2--|
    . . .

Riff 2

e:|-----------------------| 
B:|-----------------------| 
G:|-----------------------| 
D:|-----------------------| 
A:|-----7-5---7-5-7-8-8---| 
E:|-0-0-5-3-0-5-3-5-6-6---|
    . .     . 

Riff 3

e:|--------------------| 
B:|--------------------| 
G:|--------------------| 
D:|-88888888\14/10\12--| 
A:|-88888888\14/10\12--| 
E:|-66666666\12/8-\10--|

Riff 4*

e:|------------| 
B:|------------| 
G:|------------|   *Not to sure abou this riff.  
D:|------------|    E-mail me if you have a better idea. 
A:|-9-7-1010---| 
E:|-7-5--8-8---|

Riff 5a

e:|-----------------| 
B:|-----------------| 
G:|-----------------| 
D:|-----5-----8/7---| 
A:|-----5-----8/7---| 
E:|-0-0-3-0-0-6/5---|
    . .   . .   

Riff 5b

e:|-----------------| 
B:|-----------------| 
G:|-----------------| 
D:|-----5--8/7/6/5--| 
A:|-----5--8/7/6/5--| 
E:|-0-0-3--6/5/4/3--|
    . .    . . . .
            
Submit corrections

comments powered by Disqus
↑ Back to top | S.O.D. Tabs for Fist Banging Mania. Lyrics for acoustic guitar and electric guitar. 1 Tablatures and chords are parodies/interpretations of the original songs. You may use it for private study, scholarship, research or language learning purposes only